Misc - Misc Finger Excercises Chords & Tabs

 

Misc Finger Excercises Chords & Tabs

Misc Chords & Tabs

Version: 1 Type: Tab 3 ratings
1 star 2 stars 3 stars 4 stars 5 stars
comments

Misc Finger Excercises Tab

here are some finger exersizes and finger patterns that have really helped me out over the years



------------------------1234---------------------------------
--------------------1234------4321---------------------------
----------------1234----------------4321---------------------
-----------1234--------------------------4321----------------
------1234-------------------------------------4321----------
-1234-----------------------------------------------4321-----




-----------------------------------------------
-----------------------------------------------
-------4-1-------------------5--2--------------
-----3------2-------------4--------3-----------etc
---2-----------3-------3--------------4--------
-1---------------4--2-------------------5------



blues proggression

---------------------------------
---------------------------------
--------------------------------
-----------232 ---------------------
----2---5------5--2------------------
-3--------------------------------



major scale

start anywhere on the fretboard on the note that the scale would start on the low e

-------------------------------------78---                          i will show the c scale
--------------------------------8-10------
-----------------------7-9-10-------------AND THEN YOU GO BACK DOWN THE SAME WAY
----------------7-9-10--------------------
--------7-8-10----------------------------
-8--10------------------------------------



PENTATONIC SCALE IN A MAJOR THIS ALSO CAN BE MOVED UP AND DOWN TO BE PLAYED ON ANY SCALE

[ Tab from: http://www.guitartabs.cc/tabs/m/misc/misc_finger_excercises_tab.html ]
--------------------------58--------------
----------------------5-8-----------------
-----------------5-7----------------------                          PATTERN 1
-------------5-7--------------------------
-------5--7-------------------------------
-5--8-------------------------------------




----------------------------8-10----
-----------------------8-10---------
------------------7-9---------------                              PATTERN 2
-------------7-10-------------------
--------7-10------------------------
-8--10------------------------------



------------------------------10-12------
------------------------10-13------------
-------------------9-12------------------
-------------10-12-----------------------                          PATTERN 3
-------10-12-----------------------------
-10-12-----------------------------------



-------------------------------12-15---
-------------------------13-15---------
-------------------12-14---------------
-------------12-14---------------------                            PATTERN 4   
-------12-15---------------------------
-12-15---------------------------------



PATTERN 4 AND 5 CAN BE PLAYED IN 2 DIFFERENT PLACES ON PATTERN 4 THE OTHER ONE STARTS OPEN
ON PATTERN 5 THE OTHER ONE STARTS AT THE THIRD FRET

-------------------------------15-17-------
-------------------------15-17-------------
-------------------14-17-------------------
-------------14-17-------------------------
-------15-17-------------------------------
-15-17-------------------------------------
                                     

















Comments