Misc - Michigan Wolverines Fight Song Chords & Tabs

 

Michigan Wolverines Fight Song Chords & Tabs

Misc Chords & Tabs

Version: 1 Type: Bass Tab 0 ratings
1 star 2 stars 3 stars 4 stars 5 stars
comments

Michigan Wolverines Fight Song Bass Tab

Song: Michigan State Fight Song
Artist: Unknown
Tabbed by Matt (MaTTyBbad@cs.com)
*2* means hold note
NORMAL TUNING
[ Tab from: http://www.guitartabs.cc/tabs/m/misc/michigan_wolverines_fight_song_btab.html ]
G/-----------------*0*-----0-----0-*2*-*3*---0-------------*2*--/
D/*3*--0-2-3-0-2-3-----2-3---2-3-----------3---0-2-*3*-2-0------/
A/--------------------------------------------------------------/
E/-------------------------------------------------I-----------I/
                                                    FIRST ENDING

AFTER YOU PLAY THIS REPEAT IT
WITHOUT PLAYING THE FIRST ENDING
AND PLAY THE SECOND ENDING BELOW.

G/---2---------------/
D/-3---3-2-*0*-------/
A/-------------------/
E/-------------------/
Comments