Misc - Mexicanoguitaro Song Chords & Tabs

 

Mexicanoguitaro Song Chords & Tabs

Misc Chords & Tabs

Version: 1 Type: Tab 0 ratings
1 star 2 stars 3 stars 4 stars 5 stars
comments

Mexicanoguitaro Song Tab

Intro: 
(Verse): (2x)
E-----------------------------------------------------------
B-----------------------------------------------------------
G-----------------------------------------------------------
D------14--14---------10-10------7-7--------12--12----------
A----12--12--12--12--8--8--8-8--5-5-5-5---10--10--10--10----
D--12----------12---8-------8--5-----5--10----------10------

   (1x) (Last time before verse)               (Let last 10 ring)
E----------------------------------------------------------------
B----------------------------------------------------------------
G----------------------------------------------------------------
D------14--14-15-14-----10-10------7-7--------12--12-14-12-10----
A----12--12--------12--8--8--8-8--5-5-5-5---10--10---------------
D--12-----------------8-------8--5-----5--10---------------------

Chorus: (2x) 
E-------------------------------------------------------------------------------------------
B-------------------------------------------------------------------------------------------
G-------------------------------------------------------------------------------------------
D-xxxxxx-12-12-12-12-12-12--8-8-8-8-8-8-xx8-xx8--5-5-5-5-5-5/10-10-10-10-10-10-xxxx10h12----
A-xxxxxx-12-12-12-12-12-12--8-8-8-8-8-8-xx8-xx8--5-5-5-5-5-5/10-10-10-10-10-10-xxxx10h12----
D-xxxxxx-12-12-12-12-12-12--8-8-8-8-8-8-xx8-xx8--5-5-5-5-5-5/10-10-10-10-10-10-xxxx10h12----
[ Tab from: http://www.guitartabs.cc/tabs/m/misc/mexicanoguitaro_song_tab.html ]
Verse2: (1x) (strum [not exact strumming pattern])
E-----------------------------------------------------------------------
B-----------------------------------------------------------------------
G-----------------------------------------------------------------------
D-14-14-14-14-14-14-10-10-10-10-10-10-7-7-7-7-7-7-12-12-12-12-12-12-----
A-12-12-12-12-12-12--8--8--8--8--8--8-5-5-5-5-5-5-10-10-10-10-10-10-----
D-12-12-12-12-12-12--8--8--8--8--8--8-5-5-5-5-5-5-10-10-10-10-10-10-----

Verse2: (last time)
E-------------------------------------------------------------------------
B-------------------------------------------------------------------------
G-------------------------------------------------------------------------
D-14-14-14-15-15-15-10-10-10-10-10-10-7-7-7-7-7-7-12-12-12-12-12-12/14----
A-12-12-12-12-12-12--8--8--8--8--8--8-5-5-5-5-5-5-10-10-10-10-10-10-------
D-12-12-12-12-12-12--8--8--8--8--8--8-5-5-5-5-5-5-10-10-10-10-10-10-------

(Chorus)

Break: (2x)
E-----------------------------------------------------------------------------------------
B-----------------------------------------------------------------------------------------
G-----------------------------------------------------------------------------------------
D-12-12-12-12-10-10-10-10-5-5-5-5-8-8-8-8-(8h10)-12-12-12-12-15-15-15-15-8-8-8-8-5-5-5-5--
A-12-12-12-12-10-10-10-10-5-5-5-5-8-8-8-8-(8h10)-12-12-12-12-15-15-15-15-8-0-8-8-5-5-5-5--
D-12-12-12-12-10-10-10-10-5-5-5-5-8-8-8-8-(8h10)-12-12-12-12-15-15-15-15-8-8-8-8-5-5-5-5--
    
(Chorus)
 
(intro for outro)
Comments