Misc - Megaman Robot Select Theme Chords & Tabs

 

Megaman Robot Select Theme Chords & Tabs

Misc Chords & Tabs

Version: 1 Type: Tab 0 ratings
1 star 2 stars 3 stars 4 stars 5 stars
comments

Megaman Robot Select Theme Tab

Song: Mega Man: Robot Master Select Screen                       
Tabbed By: Tim Barr
MX ID: SpADeD
Date: 1/26/04

                                                         
E||--8--8--8--6--6--6--9--9--|--9--8--8--8--6--6--8--8--|
B||--------------------------|--------------------------|
G||--------------------------|--------------------------|
D||--------------------------|--------------------------|
A||--------------------------|--------------------------|
E||--------------------------|--------------------------|


                                                      
--8--8--8--6--6--6--4--4--|--4--6--6--6--4--4--6--6--|
--------------------------|--------------------------|
--------------------------|--------------------------|
--------------------------|--------------------------|
--------------------------|--------------------------|
--------------------------|--------------------------|


                                                      
--8--8--8--6--6--6--9--9--|--9--8--8--8--6--6--8--8--|
--------------------------|--------------------------|
--------------------------|--------------------------|
--------------------------|--------------------------|
--------------------------|--------------------------|
--------------------------|--------------------------|


                                                      
--8--8--8--6--6--6--4--4--|--4--6--6--6--4--4--6--6--|
--------------------------|--------------------------|
--------------------------|--------------------------|
--------------------------|--------------------------|
--------------------------|--------------------------|
--------------------------|--------------------------|


                                                      
--8--8--8--6--6--6--9--9--|--9--8--8--8--6--6--8--8--|
--------------------------|--------------------------|
--------------------------|--------------------------|
--------------------------|--------------------------|
--------------------------|--------------------------|
--------------------------|--------------------------|


                                                      
--8--8--8--6--6--6--4--4--|--4--6--6--6--4--4--6--6--|
--------------------------|--------------------------|
--------------------------|--------------------------|
--------------------------|--------------------------|
--------------------------|--------------------------|
--------------------------|--------------------------|


                                                      
--8--8--8--6--6--6--9--9--|--9--8--8--8--6--6--8--8--|
--------------------------|--------------------------|
--------------------------|--------------------------|
--------------------------|--------------------------|
--------------------------|--------------------------|
--------------------------|--------------------------|

[ Tab from: http://www.guitartabs.cc/tabs/m/misc/megaman_robot_select_theme_tab.html ]
                                                      
--8--8--8--6--6--6--4--4--|--4--6--6--6--4--4--6--6--|
--------------------------|--------------------------|
--------------------------|--------------------------|
--------------------------|--------------------------|
--------------------------|--------------------------|
--------------------------|--------------------------|


                                                      
--8--8--8--6--6--6--9--9--|--9--8--8--8--6--6--8--8--|
--------------------------|--------------------------|
--------------------------|--------------------------|
--------------------------|--------------------------|
--------------------------|--------------------------|
--------------------------|--------------------------|


                                                      
--8--8--8--6--6--6--4--4--|--4--6--6--6--4--4--6--6--|
--------------------------|--------------------------|
--------------------------|--------------------------|
--------------------------|--------------------------|
--------------------------|--------------------------|
--------------------------|--------------------------|


                                                      
--8--8--8--6--6--6--9--9--|--9--8--8--8--6--6--8--8--|
--------------------------|--------------------------|
--------------------------|--------------------------|
--------------------------|--------------------------|
--------------------------|--------------------------|
--------------------------|--------------------------|


                                                      
--8--8--8--6--6--6--4--4--|--4--6--6--6--4--4--6--6--|
--------------------------|--------------------------|
--------------------------|--------------------------|
--------------------------|--------------------------|
--------------------------|--------------------------|
--------------------------|--------------------------|


                                                      
--8--8--8--6--6--6--9--9--|--9--8--8--8--6--6--8--8--|
--------------------------|--------------------------|
--------------------------|--------------------------|
--------------------------|--------------------------|
--------------------------|--------------------------|
--------------------------|--------------------------|


                                                      
--8--8--8--6--6--6--4--4--|--4--6--6--6--4--4--6--6--|
--------------------------|--------------------------|
--------------------------|--------------------------|
--------------------------|--------------------------|
--------------------------|--------------------------|
--------------------------|--------------------------|


                                                      
--8--8--8--6--6--6--9--9--|--9--8--8--8--6--6--8--8--|
--------------------------|--------------------------|
--------------------------|--------------------------|
--------------------------|--------------------------|
--------------------------|--------------------------|
--------------------------|--------------------------|


                                                       
--8--8--8--6--6--6--4--4--|--4--6--6--6--4--4--6--6--||
--------------------------|--------------------------||
--------------------------|--------------------------||
--------------------------|--------------------------||
--------------------------|--------------------------||
--------------------------|--------------------------||


Comments