Misc - Megaman Firemans Theme Chords & Tabs

 

Megaman Firemans Theme Chords & Tabs

Misc Chords & Tabs

Version: 1 Type: Tab 0 ratings
1 star 2 stars 3 stars 4 stars 5 stars
comments

Megaman Firemans Theme Tab

Song: Fireman's Theme
Tabbed By: Tim Barr                                
MX ID: SpADeD
Date: 1/26/04

                                                                    
E||------------------|----5----5----5----5--|----5----5----5----5--|
B||------------------|----------------------|----------------------|
G||------------------|----------------------|----------------------|
D||------------------|----------------------|----------------------|
A||------------------|----------------------|----------------------|
E||------------------|----------------------|----------------------|


                                                                     
----5----5----5----5--|----5----5----5----5--|----5----5----5----5--|
----------------------|----------------------|----------------------|
----------------------|----------------------|----------------------|
----------------------|----------------------|----------------------|
----------------------|----------------------|----------------------|
----------------------|----------------------|----------------------|


                                                                     
----5----5----5----5--|----5----5----5----5--|----5----5----5----5--|
----------------------|----------------------|----------------------|
----------------------|----------------------|----------------------|
----------------------|----------------------|----------------------|
----------------------|----------------------|----------------------|
----------------------|----------------------|----------------------|


                                                                      
----5----5----5----5--|----5----5----5----5--|--7----7-5---4---------|
----------------------|----------------------|------------------5----|
----------------------|----------------------|-----------------------|
----------------------|----------------------|-----------------------|
----------------------|----------------------|-----------------------|
----------------------|----------------------|-----------------------|


                                                                        
--5----5-4---2---------|--4----4-2---1---------|---2--4------5--6------|
------------------3----|------------------2----|-----------------------|
-----------------------|-----------------------|-----------------------|
-----------------------|-----------------------|-----------------------|
-----------------------|-----------------------|-----------------------|
-----------------------|-----------------------|-----------------------|


                                                                       
--9-10-9-10-9-10-9-10-12-----12-0---|-----7-5-7-5-7-5-7-10-----10-----|
------------------------------------|--10-----------------------------|
------------------------------------|-----------------------------7---|
------------------------------------|---------------------------------|
------------------------------------|---------------------------------|
------------------------------------|---------------------------------|

[ Tab from: http://www.guitartabs.cc/tabs/m/misc/megaman_firemans_theme_tab.html ]
                                                                       
------------------------------------------|-------7------7--8--9-13---|
--9-10-9-10-9-10-9-10-9-10-9-10-9-10-9-10-|---10----------------------|
------------------------------------------|---------------------------|
------------------------------------------|---------------------------|
------------------------------------------|---------------------------|
------------------------------------------|---------------------------|


                                                      
--------------------------|--------------------------|
----10----10----10----10--|----10----10----10----10--|
--------------------------|--------------------------|
--------------------------|--------------------------|
--------------------------|--------------------------|
--------------------------|--------------------------|


                                                      
--------------------------|--------------------------|
----10----10----10----10--|----10----10----10----10--|
--------------------------|--------------------------|
--------------------------|--------------------------|
--------------------------|--------------------------|
--------------------------|--------------------------|


                                                      
--------------------------|--------------------------|
----10----10----10----10--|----10----10----10----10--|
--------------------------|--------------------------|
--------------------------|--------------------------|
--------------------------|--------------------------|
--------------------------|--------------------------|


                                                                              
--------------------------|--------------------------|--7----7-5---4---------|
----10----10----10----10--|----10----10----10----10--|------------------5----|
--------------------------|--------------------------|-----------------------|
--------------------------|--------------------------|-----------------------|
--------------------------|--------------------------|-----------------------|
--------------------------|--------------------------|-----------------------|


                                                                        
--5----5-4---2---------|--4----4-2---1---------|---2--4------5--6------|
------------------3----|------------------2----|-----------------------|
-----------------------|-----------------------|-----------------------|
-----------------------|-----------------------|-----------------------|
-----------------------|-----------------------|-----------------------|
-----------------------|-----------------------|-----------------------|


                                                                       
--9-10-9-10-9-10-9-10-12-----12-0---|-----7-5-7-5-7-5-7-10-----10-----|
------------------------------------|--10-----------------------------|
------------------------------------|-----------------------------7---|
------------------------------------|---------------------------------|
------------------------------------|---------------------------------|
------------------------------------|---------------------------------|


                                                                        
------------------------------------------|-------7------7--8--9-13---||
--9-10-9-10-9-10-9-10-9-10-9-10-9-10-9-10-|---10----------------------||
------------------------------------------|---------------------------||
------------------------------------------|---------------------------||
------------------------------------------|---------------------------||
------------------------------------------|---------------------------||


Comments