Misc - Megaman 3 Intro Theme Chords & Tabs

 

Megaman 3 Intro Theme Chords & Tabs

Misc Chords & Tabs

Version: 1 Type: Tab 0 ratings
1 star 2 stars 3 stars 4 stars 5 stars
comments

Megaman 3 Intro Theme Tab

Song: Megaman 3 Intro Theme
Tabbed By: Tim Barr
MX ID: SpADeD
Date: 1/25/04
Comments: WOW! Do I love playing this song, it has a certain something
special to it. Try playing it on acousitc, sounds very good. I tabbed this
down an octave so it sounds better for guitar.
                                                                
E||----------------------|----------------0----|----------------------|
B||--2----------------0--|--1-2----------------|--4----------2--0--3--|
G||----------------2-----|---------------------|----------------------|
D||-------------4--------|---------------------|----------------------|
A||----------------------|---------------------|----------------------|
E||----------------------|---------------------|----------------------|


                                                                       
--------------------|-------------------------|-----------------------|
--------------2--0--|--1-2--------------------|--------------0----0-1-|
--------------------|------2---------------2--|---------2-------------|
--------------------|---------4----2--4-------|----4------------------|
--------------------|-------------------------|-----------------------|
--------------------|-------------------------|-----------------------|


                                                                            
--------------------7-8-|--7--5-----5----5--7----|-------------------0--2--|
--0---------------------|--------7---------------|-------------0-----------|
-----2-----2------------|------------------------|----------------6--------|
--------4---------------|------------------------|----4--6--7--------------|
------------------------|------------------------|-------------------------|
------------------------|------------------------|-------------------------|


                                                                       
---------0----2----5-7-|------5----------------|----------------------|
----2------------------|-----------7--5----6-7-|----6-----------5--7--|
-----------------------|-----------------------|-------6--------------|
-----------------------|-----------------------|----------------------|
-----------------------|-----------------------|----------------------|
-----------------------|-----------------------|----------------------|


                                                                     
----8-9------------------------|-------------0----------------------|
--------10---------------------|--0---------------------10----12----|
------------11-----------------|------------------11----------------|
----------------11-------------|-------11---------------------------|
--------------------9--11--12--|------------------------------------|
-------------------------------|------------------------------------|


                                                                    
-------------------------------|-------------------7----9----13----|
--13-14-12------------10---9---|--------------9--------------------|
------------14---11------------|--------10-------------------------|
-------------------------------|--11-------------------------------|
-------------------------------|-----------------------------------|
-------------------------------|-----------------------------------|


                                                                      
----------------------------------|----------------------------------|
----------------------------------|----------------------------------|
----------------------------------|----------------------------------|
--11-11-9-11--9--11--9--11-11--9--|--11-11-9-11--9--11--9--11-11--9--|
----------------------------------|----------------------------------|
----------------------------------|----------------------------------|


                                                                      
--------------------------0-------|--4-2---4-2---4-2---4-2---4-2-1---|
----------0-----0-----0-----3-2-0-|------2-----2-----2-----2-------2-|
------------------6-----6---------|----------------------------------|
--7---6-7---6-7-----7-------------|----------------------------------|
----9-----------------------------|----------------------------------|
----------------------------------|----------------------------------|


                                                                        
-------------0---------|-----0-----------------|-------------0---------|
----0--2--0-------4----|--0-------4----2----0--|----0--2--0-------4----|
-----------------------|-----------------------|-----------------------|
-----------------------|-----------------------|-----------------------|
-----------------------|-----------------------|-----------------------|
-----------------------|-----------------------|-----------------------|


                                                                        
-----0------------0--4--|------2--0-------0--4--|------2--0---------0--|
--0-------4----2--------|--------------2--------|--------------4-------|
------------------------|-----------------------|----------------------|
------------------------|-----------------------|----------------------|
------------------------|-----------------------|----------------------|
------------------------|-----------------------|----------------------|


                                                                       
----------------------|---------------------|-------0-----7-----5-----|
----4--2----2----0----|--0--2----2----------|----2-----2--------------|
----------------------|---------------------|----------------6-----6--|
----------------------|---------------------|-------------------------|
----------------------|---------------------|-------------------------|
----------------------|---------------------|-------------------------|


                                                                            
--4-------------------4--|----0-----------0----4--|--0---------------------|
--------7-----5--7-------|-------2--0--2----------|-----2--0--2----2----2--|
-----6-----6-------------|------------------------|------------------------|
-------------------------|------------------------|------------------------|
-------------------------|------------------------|------------------------|
-------------------------|------------------------|------------------------|


                                                                             
-------0-----7-----5-----|--4---------------------|--4--4--2--4----4--2--4--|
----2-----2--------------|--------7-----5--7------|-------------------------|
----------------6-----6--|-----6-----6------------|-------------------------|
-------------------------|------------------------|-------------------------|
-------------------------|------------------------|-------------------------|
-------------------------|------------------------|-------------------------|


                                                                         
--9--9--7--9----7--9----|-------------0---------|-----0-----------------|
------------------------|----------0-------4----|--0-------4----2----0--|
------------------------|-------6---------------|-----------------------|
------------------------|----9------------------|-----------------------|
------------------------|-----------------------|-----------------------|
------------------------|-----------------------|-----------------------|


                                                                         
-------------0---------|-----0------------0--4--|------2--0-------0--4--|
----0--2--0-------4----|--0-------4----2--------|--------------2--------|
-----------------------|------------------------|-----------------------|
-----------------------|------------------------|-----------------------|
-----------------------|------------------------|-----------------------|
-----------------------|------------------------|-----------------------|


                                                                    
------2--0---------0--|----------------------|---------------------|
--------------4-------|----4--2----2----0----|--0--2----2----------|
----------------------|----------------------|---------------------|
----------------------|----------------------|---------------------|
----------------------|----------------------|---------------------|
----------------------|----------------------|---------------------|


                                                                             
-------0-----7-----5-----|--4-------------------4--|----0-----------0----4--|
----2-----2--------------|--------7-----5--7-------|-------2--0--2----------|
----------------6-----6--|-----6-----6-------------|------------------------|
-------------------------|-------------------------|------------------------|
-------------------------|-------------------------|------------------------|
-------------------------|-------------------------|------------------------|


                                                                            
--0---------------------|-------0-----7-----5-----|--4---------------------|
-----2--0--2----2----2--|----2-----2--------------|--------7-----5--7------|
------------------------|----------------6-----6--|-----6-----6------------|
------------------------|-------------------------|------------------------|
------------------------|-------------------------|------------------------|
------------------------|-------------------------|------------------------|


                                                                           
--4--4--2--4----4--2--4--|--9--9--7--9----7--9----|-------------0---------|
-------------------------|------------------------|----------0-------4----|
-------------------------|------------------------|-------6---------------|
-------------------------|------------------------|----9------------------|
-------------------------|------------------------|-----------------------|
-------------------------|------------------------|-----------------------|

[ Tab from: http://www.guitartabs.cc/tabs/m/misc/megaman_3_intro_theme_tab.html ]
                                                                         
-----0-----------------|-------------0---------|-----0------------0--4--|
--0-------4----2----0--|----0--2--0-------4----|--0-------4----2--------|
-----------------------|-----------------------|------------------------|
-----------------------|-----------------------|------------------------|
-----------------------|-----------------------|------------------------|
-----------------------|-----------------------|------------------------|


                                                                      
------2--0-------0--4--|------2--0---------0--|----------------------|
--------------2--------|--------------4-------|----4--2----2----0----|
-----------------------|----------------------|----------------------|
-----------------------|----------------------|----------------------|
-----------------------|----------------------|----------------------|
-----------------------|----------------------|----------------------|


                       
---------------------||
--0--2----2----------||
---------------------||
---------------------||
---------------------||
---------------------||

Guitar 2:
                                                                             
E||----------------------|--------------------------|-----------------------|
B||----------------2--0--|--------------------------|-----------------------|
G||--2-------------------|--1--------2--------------|--------------------2--|
D||-------------4--------|----------------4----2----|--1--------1--2--4-----|
A||----------------------|--------------------------|-----------------------|
E||----------------------|--------------------------|-----------------------|


                                                                     
---------------------|-----------------------|----------------------|
---------------------|-----------------------|-------2---------0----|
----------1----2-----|--2--------------------|--2---------2---------|
------------------4--|-----4-------2---------|----------------------|
---------------------|--------4---------4----|----------------------|
---------------------|-----------------------|----------------------|


                                                             
-------------------|--------------------|-------------------|
-------------------|--------------------|-------------------|
-------------------|------------2--2----|-------------------|
--4----------------|--------------------|--4----------------|
-------------------|--------------------|-------------------|
-------------------|--------------------|-------------------|


                                                                                
-------------------|-------------------|-------------------|-------------------|
-------------------|--2----------------|-------------------|-------------------|
--2----------------|-------------------|-------------------|-------------------|
-------------------|-------------------|--2----------------|--4----------------|
-------------------|-------------------|-------------------|-------------------|
-------------------|-------------------|-------------------|-------------------|


                                                                               
-------------------|-------------------|-------------------|------------------|
-------------------|--2----------------|--2----------------|------------------|
--4----------------|-------------------|-------------------|------------------|
-------------------|-------------------|-------------------|------------------|
-------------------|-------------------|-------------------|------------------|
-------------------|-------------------|-------------------|------------------|


                                                                                
------------------|------------------|------------------|----------------------|
------------------|------------------|------------------|----------------------|
------------------|------------------|------------------|----------------------|
------------------|------------------|------------------|--4------4----4----4--|
------------------|------------------|------------------|----------------------|
------------------|------------------|------------------|----------------------|


                                                                   
---------------------|----------------------|---------------------|
---------------------|----------------------|---------------------|
---------------------|----------------------|---------------------|
------4----4----4----|--4------4----4----4--|------4----4----4----|
---------------------|----------------------|---------------------|
---------------------|----------------------|---------------------|


                                                      
--------------------------|--------------------------|
--------------------------|--------------------------|
--------------------------|--------------------------|
--2-2---------2-2---------|--2-2---------2-2---------|
--------4-4---------4-4---|--------4-4---------4-4---|
--------------------------|--------------------------|


                                                                          
--------------------------|--------------------------|--5----------------|
--------------------------|--------------------------|-------------------|
--------------------------|--------1-1---------------|-------------------|
--4-4---2-2---4-4---2-2---|--4-4---------4-4---2-2---|-------------------|
--------------------------|--------------------------|-------------------|
--------------------------|--------------------------|-------------------|


                                                             
--4----------------|--9----------------|--7-----------------|
-------------------|-------------------|-----------9--------|
-------------------|-------------------|--------------------|
-------------------|-------------------|--------------------|
-------------------|-------------------|--------------------|
-------------------|-------------------|--------------------|


                                                                               
-------------------|-------------------|-------------------|------------------|
-------------------|-------------------|-------------------|------------------|
--9----------------|--8----------------|--6----------------|------------------|
-------------------|-------------------|-------------------|------------------|
-------------------|-------------------|-------------------|------------------|
-------------------|-------------------|-------------------|------------------|


                                                                    
----------------------|---------------------|----------------------|
----------------------|---------------------|----------------------|
----------------------|---------------------|----------------------|
--4------4----4----4--|------4----4----4----|--4------4----4----4--|
----------------------|---------------------|----------------------|
----------------------|---------------------|----------------------|


                                                                            
---------------------|--------------------------|--------------------------|
---------------------|--------------------------|--------------------------|
---------------------|--------------------------|--------------------------|
------4----4----4----|--2-2---------2-2---------|--2-2---------2-2---------|
---------------------|--------4-4---------4-4---|--------4-4---------4-4---|
---------------------|--------------------------|--------------------------|


                                                                          
--------------------------|--------------------------|--5----------------|
--------------------------|--------------------------|-------------------|
--------------------------|--------1-1---------------|-------------------|
--4-4---2-2---4-4---2-2---|--4-4---------4-4---2-2---|-------------------|
--------------------------|--------------------------|-------------------|
--------------------------|--------------------------|-------------------|


                                                             
--4----------------|--9----------------|--7-----------------|
-------------------|-------------------|-----------9--------|
-------------------|-------------------|--------------------|
-------------------|-------------------|--------------------|
-------------------|-------------------|--------------------|
-------------------|-------------------|--------------------|


                                                                               
-------------------|-------------------|-------------------|------------------|
-------------------|-------------------|-------------------|------------------|
--9----------------|--8----------------|--6----------------|------------------|
-------------------|-------------------|-------------------|------------------|
-------------------|-------------------|-------------------|------------------|
-------------------|-------------------|-------------------|------------------|


                                                                    
----------------------|---------------------|----------------------|
----------------------|---------------------|----------------------|
----------------------|---------------------|----------------------|
--4------4----4----4--|------4----4----4----|--4------4----4----4--|
----------------------|---------------------|----------------------|
----------------------|---------------------|----------------------|


                                                                            
---------------------|--------------------------|--------------------------|
---------------------|--------------------------|--------------------------|
---------------------|--------------------------|--------------------------|
------4----4----4----|--2-2---------2-2---------|--2-2---------2-2---------|
---------------------|--------4-4---------4-4---|--------4-4---------4-4---|
---------------------|--------------------------|--------------------------|


                                                       
--------------------------|--------------------------||
--------------------------|--------------------------||
--------------------------|--------1-1---------------||
--4-4---2-2---4-4---2-2---|--4-4---------4-4---2-2---||
--------------------------|--------------------------||
--------------------------|--------------------------||




Comments