Misc - Megaman 2 Wood Mans Theme Chords & Tabs

 

Megaman 2 Wood Mans Theme Chords & Tabs

Misc Chords & Tabs

Version: 1 Type: Tab 0 ratings
1 star 2 stars 3 stars 4 stars 5 stars
comments

Megaman 2 Wood Mans Theme Tab

Song: Megaman 2: Wood Man's Theme
Tabbed By: Tim Barr
MX ID: SpADeD
Date: 1/26/04
                                                                                
E||----------------3--|
B||-------------------|
G||-------------------|
D||-------------------|
A||-------------------|
E||-------------------|


                                                                          
----3------3----3--1---|---------1--0-----1--|-------------1-----1-----3-|
-----------------------|---------------------|----3-1----3---------------|
-----------------------|---------------------|---------------------------|
-----------------------|---------------------|---------------------------|
-----------------------|---------------------|---------------------------|
-----------------------|---------------------|---------------------------|


                                                                  
----------3--1----4--|----3---------1--0---|--------------1--3---|
---------------------|---------------------|---------------------|
---------------------|---------------------|---------------------|
---------------------|---------------------|---------------------|
---------------------|---------------------|---------------------|
---------------------|---------------------|---------------------|


                                                                        
------1----0----3-----3-|---4-3---1---------0--|----0-----3-----3--1---|
------------------------|----------------------|-----------------------|
------------------------|----------------------|-----------------------|
------------------------|----------------------|-----------------------|
------------------------|----------------------|-----------------------|
------------------------|----------------------|-----------------------|


                                                                      
----------1---0----1--|-----------1-----1----3-|----------3--1----4--|
----------------------|----1----1--------------|---------------------|
----------------------|------------------------|---------------------|
----------------------|------------------------|---------------------|
----------------------|------------------------|---------------------|
----------------------|------------------------|---------------------|


                                                                    
---3-----------1-0---|--------------1---3--|------1----0-----3-----|
---------------------|---------------------|-----------------------|
---------------------|---------------------|-----------------------|
---------------------|---------------------|-----------------------|
---------------------|---------------------|-----------------------|
---------------------|---------------------|-----------------------|


                                                                  
--3-4--3---1--------3--|----3-----0-----0--1--|
-----------------------|----------------------|
-----------------------|----------------------|
-----------------------|----------------------|
-----------------------|----------------------|
-----------------------|----------------------|

                                                                            
[ Tab from: http://www.guitartabs.cc/tabs/m/misc/megaman_2_wood_mans_theme_tab.html ]
                                                               
|----------------3--|----3------3----3--1---|
|-------------------|-----------------------|
|-------------------|-----------------------|
|-------------------|-----------------------|
|-------------------|-----------------------|
|-------------------|-----------------------|


                                                                        
---------1--0-----1--|-------------1-----1-----3-|----------3--1----4--|
---------------------|----3-1----3---------------|---------------------|
---------------------|---------------------------|---------------------|
---------------------|---------------------------|---------------------|
---------------------|---------------------------|---------------------|
---------------------|---------------------------|---------------------|


                                                                     
----3---------1--0---|--------------1--3---|------1----0----3-----3-|
---------------------|---------------------|------------------------|
---------------------|---------------------|------------------------|
---------------------|---------------------|------------------------|
---------------------|---------------------|------------------------|
---------------------|---------------------|------------------------|


                                                                      
---4-3---1---------0--|----0-----3-----3--1---|----------1---0----1--|
----------------------|-----------------------|----------------------|
----------------------|-----------------------|----------------------|
----------------------|-----------------------|----------------------|
----------------------|-----------------------|----------------------|
----------------------|-----------------------|----------------------|


                                                                     
-----------1-----1----3-|----------3--1----4--|---3-----------1-0---|
----1----1--------------|---------------------|---------------------|
------------------------|---------------------|---------------------|
------------------------|---------------------|---------------------|
------------------------|---------------------|---------------------|
------------------------|---------------------|---------------------|


                                                                      
--------------1---3--|------1----0-----3-----|--3-4--3---1--------3--|
---------------------|-----------------------|-----------------------|
---------------------|-----------------------|-----------------------|
---------------------|-----------------------|-----------------------|
---------------------|-----------------------|-----------------------|
---------------------|-----------------------|-----------------------|


                                                                                
----3-----0-----0--1--|
----------------------|
----------------------|
----------------------|
----------------------|
----------------------|


                                                                             
|----------------3--|
|-------------------|
|-------------------|
|-------------------|
|-------------------|
|-------------------|


                                            
----3------3----3--1---|------------------||
-----------------------|------------------||
-----------------------|------------------||
-----------------------|------------------||
-----------------------|------------------||
-----------------------|------------------||


Comments