Misc - Megaman 2 Bubble Man Theme Chords & Tabs

 

Megaman 2 Bubble Man Theme Chords & Tabs

Misc Chords & Tabs

Version: 1 Type: Tab 0 ratings
1 star 2 stars 3 stars 4 stars 5 stars
comments

Megaman 2 Bubble Man Theme Tab

   
Megaman 2 – Bubble Man Theme
Standard Tuning

--------------------------

The song can be divided into four distinct sections.  The video game plays 
Part A twice, and then goes into a repeating loop of Parts B, C and D.  I 
have only transcribed the “lead” track, and there is a “rhythm” track that
plays the background sounds as well.

--------------------------

PART A

|------------------------------------------------------|
|-------------------------------8-8---8-8--------------|
|------------------------------------------------------| 
|--5--6-8-5--------------------------------------------| 
|-----------------8--8-10------------------------------|
|-------------------------6----------------------------|

PART B

|------------------------------------------------------|
|----1---1-----1-1---1----1-3---3----3-3---3-----------|
|----------3-----------3----------5----------5---------|
|------------------------------------------------------|
|------------------------------------------------------|
|------------------------------------------------------|

|------------------------------------------------------|
|--3-1---1-----1-1---1----1-3---3----3-----3---(3)-----|
|----------3-----------3----------5----4-----4---------|
|------------------------------------------------------|
|------------------------------------------------------|
|------------------------------------------------------|


PART C
[ Tab from: http://www.guitartabs.cc/tabs/m/misc/megaman_2_bubble_man_theme_tab.html ]
|--11---11-13-15-13-11--11-13---10-11-10-8-6------------|
|-------------------------------------------------------|
|-------------------------------------------------------|
|-------------------------------------------------------|
|-------------------------------------------------------|
|-------------------------------------------------------|


|-18-16-15--15-13-11--18--16--15----20-19----15-19-22---|
|-------------------------------------------------------|
|-------------------------------------------------------|
|-------------------------------------------------------|
|-------------------------------------------------------|
|-------------------------------------------------------|


PART D

|-3--1-1--------1-1--------1-3-1-6-4-3------------------|
|----------4-----------1-4-------------6-4-3------------|
|-------------------------------------------------------|
|-------------------------------------------------------|
|-------------------------------------------------------|
|-------------------------------------------------------|

|-3--1-1--------1-1--------1-3-1-6-4-3-7-11-13-15-------|
|----------4-----------1-4------------------------------|
|-------------------------------------------------------|
|-------------------------------------------------------|
|-------------------------------------------------------|
|-------------------------------------------------------|


-------------------------------
Tabbed by Dave Carlson
davemcarlson @ yahoo.com		





Comments