Misc - Mechwarrior2 Winds Of War Chords & Tabs

 

Mechwarrior2 Winds Of War Chords & Tabs

Misc Chords & Tabs

Version: 1 Type: Bass Tab 0 ratings
1 star 2 stars 3 stars 4 stars 5 stars
comments

Mechwarrior2 Winds Of War Bass Tab

Mechwarrior2 soundtrack - Winds Of War (track 14)
Artist - Unknown

This is a really cool riff. It has quite a funky solo as well.

Main Riff
G------------------
D---------------1--
A-------1-3---1---3
E-(1)-1-----1------
[ Tab from: http://www.guitartabs.cc/tabs/m/misc/mechwarrior2_winds_of_war_btab.html ]
Bass Solo
G----------------------------------------------------
D-----1-----3---1---3---1-------1-----3---1---3---1-0
A-3-3---3-3---3---3---3---1---3---3-3---3---3---3----
E---------------------------4------------------------

G---------------------------------------------3--1--0-
D-----1-----3---1---3---1-------1-----3---1-----------
A-3-3---3-3---3---3---3---1---3---3-3---3---3---------
E---------------------------4-------------------------

Tabbed By ~D'Espresso~ - love letters can be mailed to me at 
jammindevil@hotmail.com
Comments