Misc - Mario Chords & Tabs

 

Mario Chords & Tabs

Misc Chords & Tabs

Version: 1 Type: Tab 3 ratings
1 star 2 stars 3 stars 4 stars 5 stars
comments

Mario Tab

Intro
e|--------------------------15-15\0-----|
b|—17-17-17----17-----------------------|
g|----------17--------------------------|
d|--------------------------------------|
a|--------------------------------------|
e|--------------------------------------|
 
  Riff 1
e|------------------------|-----------------15-17----15-------------------|
b|------------------------|-----------------------18----17----------------|
g|--17--------------------|------17----------------------------17-19-16---|
d|------17-14-17-19-18-17-|-17--------------------------------------------|
a|------------------------|-----------------------------------------------|
e|------------------------|-----------------------------------------------|

                                                     __________________________   ________
  Riff 2                                        | 1                              | 2
e|--15-14-13----12------------------------------|-------15-14-13-----12-20-20-20-|----------
b|.----------16------13------13--13-------------|-15-17---------16---------------|-16—15--13
g|----------------------13-14--14---------------|--------------------------------|----------
d|----------------------------------------------|--------------------------------|----------
a|.---------------------------------------------|--------------------------------|----------
e|----------------------------------------------|--------------------------------|----------
[ Tab from: http://www.guitartabs.cc/tabs/m/misc/mario_tab.html ]
 Riff 3
e-------------------------------------------------------------------------------------------
b----------------17------------------------------17---------------17------------------------
g-17-17-17-17-19--------17-14-12--17-17-17-17-19----17-17-17-17-19--------17-14-12----------
d-------------------------------------------------------------------------------------------
a-------------------------------------------------------------------------------------------
e-------------------------------------------------------------------------------------------
                                           ______________________________________  ____________________
 Riff 4                                   | 1                                     | 2
e|----------------------------------------|---17-17-17-15-13----------------------|---13-13-13-12------------
b|.---17---------------18-18--------------|--------------------------17-----------|--------------------------
g|------17--------------------------------|-17--------------------------17--------|-16-----------------19-17-
d|---------16-17-19-------------19--------|---------------------------------19-17-|--------------------------
a|.---------------------------------------|---------------------------------------|--------------------------
e|----------------------------------------|---------------------------------------|--------------------------
                                                 ________________________________  ____________________
  Riff 4a                                       | 1                               | 2
e|----------------------------------------|----17-17-17-15------------------------|--------------------------
b|.--17------------------18-18------------|----------------18-17------------------|--------------------------
g|-------17-------------------------------|-----------------------17-14-12--------|--------------------------
d|-----------17-16-17-19-----------19-----|---------------------------------------|---13--13-13-12-10--------
a|.---------------------------------------|---------------------------------------|-12----------------13vvvvv
e|----------------------------------------|---------------------------------------|--------------------------

end
e-------------------------------------------------
b-------------------------------------------------
g-------------------------------------------------
d-------------------------------------------------
a-13------10-12-10----11--------------------------
e---13-10-----------14-----14-13-11-13------------




Song Structure:
Intro
Riff 1
Riff 2 x 2
Riff 3
Intro
Riff 1
Riff 4 x2
Riff 3
Intro
Riff 4a 
End

this song is so awesome and i am so happy that i got this figured out 
i know its been a big thing going around the mario thing on guitar, so yea here u have it
this also an awesome game... have fun!!!! i wil try to figure out those other, not to popular parts,
i will post them in addition to this on a later date
any q's suggestions comments hate mail w/e send them to e_is_728@hotmail.com or im me on aim
fullmetal w
--chris	
Comments