Misc - Malaguena Chords & Tabs

 

Malaguena Chords & Tabs

Misc Chords & Tabs

Version: 3 Type: Tab 0 ratings
1 star 2 stars 3 stars 4 stars 5 stars
comments

Malaguena Tab

   
-------------------------------------------------------------------------------
			     MALAGUENA - Misc
-------------------------------------------------------------------------------
Tabbed by:THE GUITAR GOD
Email:Unknown

Tuning:E,A,D,G,B,E

e|------------------------------------0----------------------------------------|
B|------------------------------------0----------------------------------------|
G|------------------------------------1----------------------------------------|
D|-------0-0-0-----------------0------2----------------------------------------|
A|-0-2-3-------3-2-0-2-3-0-2-3-----2--2----------------------------------------|
E|-------------------------------4----0----------------------------------------|

e|-----------------------------------------------------------------------------|
B|-----------------------------------------------------------------------------|
G|-----------------------------------------------------------------------------|
D|-------0-0-0-----------------0---0-------------------------------------------|
A|-0-2-3-------3-2-0-2-3-0-2-3---3---3-----------------------------------------|
E|-----------------------------------------------------------------------------|
[ Tab from: http://www.guitartabs.cc/tabs/m/misc/malaguena_tab_ver_3.html ]
e|---0---0---0----0---0---0---0---0---0---0---0---0-0--------------------------|
B|---------0------------0-------1---0---------------0--------------------------|
G|-----1------------1-------2-----------2---0-------1--------------------------|
D|-2------------2-------------------------------3---2--------------------------|
A|--------------------------------------------------2--------------------------|
E|--------------------------------------------------0--------------------------|

e|---0---0---0----0---0---0---0---0---0---0---0---0-0--------------------------|
B|---------0------------0-------1---0---------------0--------------------------|
G|-----1------------1-------2-----------2---0-------1--------------------------|
D|-2------------2-------------------------------3---2--------------------------|
A|--------------------------------------------------2--------------------------|
E|--------------------------------------------------0--------------------------|

e|-0-1-3-1-0-0-----------0---------------------0-------------------------------|
B|-----------0-0-3-1-0-1-1-------0-1-3-1-0-----0-------------------------------|
G|-----------1-----------2-2-1-2-----------0-2-1-------------------------------|
D|-----------2-----------2---------------------2-------------------------------|
A|-----------2-----------0---------------------2-------------------------------|
E|-----------0---------------------------------0-------------------------------|

| /  slide up
| \  slide down
| h  hammer-on
| p  pull-off
| ~  vibrato
| +  harmonic
| x  Mute note
===============================================================================
Comments