Misc - Mahna Mahna Chords & Tabs

 

Mahna Mahna Chords & Tabs

Misc Chords & Tabs

Version: 1 Type: Bass Tab 0 ratings
1 star 2 stars 3 stars 4 stars 5 stars
comments

Mahna Mahna Bass Tab

.-----------------.
| The Muppet Show |
| Mahna Mahna     |
'-----------------'

Actually this song is super simple so this tab ist just meant as practice
for me & for those who are just too lazy. :)


-> silberfinger@gmx.net <-



Intro
[ Tab from: http://www.guitartabs.cc/tabs/m/misc/mahna_mahna_btab.html ]
G|-----------------------------------------------
D|-------4---5---7-------------------------------
A|---5---------------7-------5-------------------
E|-----------------------5-----------------------



Chorus: Mahna Mahna...

G|-------------------|---
D|-------7-----------|---      repeat twice
A|---7-------5-------|---      then add:
E|---------------7---|---

G|-------------------
D|---7-------5-------
A|-------5-----------
E|-------------------



That's it :-)
Comments