Misc - Lost Society Block Party Chords & Tabs

 

Lost Society Block Party Chords & Tabs

Misc Chords & Tabs

Version: 1 Type: Tab 0 ratings
1 star 2 stars 3 stars 4 stars 5 stars
comments

Lost Society Block Party Tab

                                         ...............................
                                        ]   ~B L O C K    P A R T Y~    [
                                        ]             by                [
                                        ]  ~L O S T      S O C I E T Y~ [
                                        ]                               [
                                        ]      (TABED BY ALBERT)        [
                                         '''''''''''''''''''''''''''''''
 
 This is a preaty easy song to play that i made for a party in the one my band is playing 
 here are some directions so u can understand it better but hey dont try to steal this tabs cos 
 they are "copywrited" for more cool stuff bout the band go to ~ www.freewebs.com/lostsociety/ ~



 
     /
['] /      ___
 ' /       ___  "REPEAT SAME TAB"
  /  [']   
 /    ' 

 "PM" = PALM MUTE


 ANYWAY HERE IS THE 
 GUITAR 2 FOR "BLOCK PARTY" 
 

INTRO:

e-----------------------------------------------------|--------------------------------------------------------|
B-----------------------------------------------------|--------------------------------------------------------|     /
G-----------------------------------------------------|--------------------------------------------------------|[`] / X2 
D---9-9--9-9-9---5-5--5-5-5---7-7--7-7-7--------------|--9-9--9-9-9---5-5--5-5-5---7-7--7-7-7------------------| ` /
A---7-7--7-7-7---3-3--3-3-3---5-5--5-5-5---5-5--5-5-5-|--7-7--7-7-7---3-3--3-3-3---5-5--5-5-5---5-5--5-5-5-----|  / [`]
E------------------------------------------3-3--3-3-3-|-----------------------------------------3-3--3-3-3-----| /   `


VERSE:

e------------------------------------------------------------------------------------------------|
B------------------------------------------------------------------------------------------------|     /
G------------------------------------------------------------------------------------------------|['] / X4
D---2-2-2-2-2-2-2-2---9-9-9-9-9-9-9-9---5-5-5-5-5-5-5-5---7-7-7-7-7-7-7-7------------------------| ' /
A---2-2-2-2-2-2-2-2---7-7-7-7-7-7-7-7---3-3-3-3-3-3-3-3---5-5-5-5-5-5-5-5---5-5-5-5-5-5-5-5------|  /  [']
E---0-0-0-0-0-0-0-0---------------------------------------------------------3-3-3-3-3-3-3-3------| /    '



CHORUS:

e-------------------------------------------------------------------------|
B-------------------------------------------------------------------------|     /
G-------------------------------------------------------------------------|['] / X4
D---9-9-9-9-9-9-9-9---5-5-5-5-5-5-5-5---7-7-7-7-7-7-7-7-------------------| ' /  
A---7-7-7-7-7-7-7-7---3-3-3-3-3-3-3-3---5-5-5-5-5-5-5-5---5-5-5-5-5-5-5-5-|  /  [']
E---------------------------------------------------------3-3-3-3-3-3-3-3-| /    '


INTRO: X1

VERSE: X4

CHORUS: X4


[ Tab from: http://www.guitartabs.cc/tabs/m/misc/lost_society_block_party_tab.html ]
SOLO:
PLAY THIS IN "PM" WHILE SOLO IS PLAYED 
e-------------------------------------------------------------------------|
B-------------------------------------------------------------------------|     /
G-------------------------------------------------------------------------|['] / X4
D---9-9-9-9-9-9-9-9---5-5-5-5-5-5-5-5---7-7-7-7-7-7-7-7-------------------| ' /  
A---7-7-7-7-7-7-7-7---3-3-3-3-3-3-3-3---5-5-5-5-5-5-5-5---5-5-5-5-5-5-5-5-|  /  [']
E---------------------------------------------------------3-3-3-3-3-3-3-3-| /    '


BRIDGE:


e-------------------------------------------------------------------------|
B-------------------------------------------------------------------------|    
G-------------------------------------------------------------------------| 
D---9-9-9-9-9-9-9-9---5-5-5-5-5-5-5-5---7-7-7-7-7-7-7-7-------------------|   
A---7-7-7-7-7-7-7-7---3-3-3-3-3-3-3-3---5-5-5-5-5-5-5-5---5-5-5-5-5-5-5-5-|  
E---------------------------------------------------------3-3-3-3-3-3-3-3-|


e-------------------------------------------------------------------------|
B-------------------------------------------------------------------------|    
G-------------------------------------------------------------------------| 
D---9-9-9-9-9-9-9-9---5-5-5-5-5-5-5-5---7-7-7-7-7-7-7-7-------------------|   
A---7-7-7-7-7-7-7-7---3-3-3-3-3-3-3-3---5-5-5-5-5-5-5-5---5-5-5-5-5-5-5-5-|  
E---------------------------------------------------------3-3-3-3-3-3-3-3-|

e-------------------------------------------------------------------------|
B-------------------------------------------------------------------------|
G-------------------------------------------------------------------------|
D---9-9-9-9-9-9-9-9---5-5-5-5-5-5-5-5-------------------------------------|
A---7-7-7-7-7-7-7-7---3-3-3-3-3-3-3-3---5-5-5-5-5-5-5-5---7-7-7-7-7-7-7-7-|
E---------------------------------------3-3-3-3-3-3-3-3---5-5-5-5-5-5-5-5-|

e-------------------------------------------------------------------------|
B-------------------------------------------------------------------------|
G-------------------------------------------------------------------------|
D---9-9-9-9-9-9-9-9---5-5-5-5-5-5-5-5-------------------------------------|
A---7-7-7-7-7-7-7-7---3-3-3-3-3-3-3-3---5-5-5-5-5-5-5-5---7-7-7-7-7-7-7-7-|
E---------------------------------------3-3-3-3-3-3-3-3---5-5-5-5-5-5-5-5-|


CHORUS: X4



OUTRO:

e-----------------------------------------------------|--------------------------------------------------------|
B-----------------------------------------------------|--------------------------------------------------------|     /
G-----------------------------------------------------|--------------------------------------------------------|[`] / X2 
D---9-9--9-9-9---5-5--5-5-5---7-7--7-7-7--------------|--9-9--9-9-9---5-5--5-5-5---7-7--7-7-7------------------| ` /
A---7-7--7-7-7---3-3--3-3-3---5-5--5-5-5---5-5--5-5-5-|--7-7--7-7-7---3-3--3-3-3---5-5--5-5-5---5-5--5-5-5-----|  / [`]
E------------------------------------------3-3--3-3-3-|-----------------------------------------3-3--3-3-3-----| /   `




          END



Comments