Misc - Lord I Lift Your Name On High Chords & Tabs

 

Lord I Lift Your Name On High Chords & Tabs

Misc Chords & Tabs

Version: 1 Type: Tab 0 ratings
1 star 2 stars 3 stars 4 stars 5 stars
comments

Lord I Lift Your Name On High Tab

Ok this is an easy song to learn! this is the frist one that i learned!
so if you wanna get any advice on playing it then e-mail me. AzCSk8er@msn.com
[ Tab from: http://www.guitartabs.cc/tabs/m/misc/lord_i_lift_your_name_on_high_tab.html ]
Opening
[-7777_5555---------------------------------
[-----------7777_5555-----------------------
[---------------------7777_5555-------------
[-------------------------------7777_555----
[-------------------------------------------
[-------------------------------------------

Chorus
[-3-3-------2-2-------3-3-------------------
[-3-3--1-1--3-3--1-1--3-3-------------------
[-----------2-2-----------------------------
[------2-2-------2-2------------------------
[-2-2--3-3-------3-3--2-2-------------------
[-3-3-----------------3-3-------------------

_ = this means to pull/pick off on this cord.
Comments