Misc - Limborack Chords & Tabs

 

Limborack Chords & Tabs

Misc Chords & Tabs

Version: 1 Type: Tab

Limborack Tab

Limborack




E:|----------------------------------------------------------------|
B:|----------------------------------------------------------------|
G:|----------------------------------------------------------------|
D:|----------------------------------------------------------------|
A:|-------2-5-2-5-2-5-------2-0-0-5-5------------------------------|
E:|---3-3---------------3-3-----------7----------------------------|
                                (2x)          
[ Tab from: http://www.guitartabs.cc/tabs/m/misc/limborack_tab.html ]
     
E:|----------------------------------------------------------------|
B:|----------------------------------------------------------------|
G:|----------------------------------------------------------------|
D:|----------------------------------------------------------------|
A:|---7-4-7-4-7-4-7---5-2-5-2-5-2-5--------------------------------|
E:|----------------------------------------------------------------|
                                


E:|----------------------------------------------------------------|
B:|----------------------------------------------------------------|
G:|----------------------------------------------------------------|
D:|----------------------------------------------------------------|
A:|-------2-5-2-5-2-5-------2-0-0-5-5------------------------------|
E:|---3-3---------------3-3-----------3----------------------------|


mas master pa ko sa inyo!!!!!!!!!!!!!!!!!!!!