Misc - Life No Longer Exists Chords & Tabs

 

Life No Longer Exists Chords & Tabs

Misc Chords & Tabs

Version: 1 Type: Tab 0 ratings
1 star 2 stars 3 stars 4 stars 5 stars
comments

Life No Longer Exists Tab

Life No Longer Exists
Artist: Richard
E-mail me| powerboat6@aol.com


Intro

E|----------------------------------------
B|----------------------------------------
G|----------------------------------------
D|--------0----------2--------0-----2----- repeat 2x
A|-----2----------2--------2-----------2--
E|--0----------0--------0--------0--------


Verse


E| 0 2 2 1 0 0     Six x's

C6/9| 0 3 2 0 3 0    six x's

Asus2| 0 0 2 2 0 0    six x's            repeat 2x's

D| x 0 0 3 2 3     six x's
[ Tab from: http://www.guitartabs.cc/tabs/m/misc/life_no_longer_exists_tab.html ]
Dm|  x 0 0 2 3 1     six x's
    (gradualy slow down 2x)
Am|  x 0 2 2 1 0    seven x's



Chorus

E|--3-3-3--3-3---3--2---3-3-3-3--3-3---2--3b-----------
B|--3-3-3--3-3----------3-3-3-3--3-3-------------------
G|--0-0-0--0-0----------0-0-0-0--0-0-------------------
D|--0-0-0--0-0----------2-2-2-2--2-2------------------- repeat 2x
A|--2-2-2--2-2----------3-3-3-3--3-3-------------------
E|--3-3-3--3-3----------0-0-0-0--0-0-------------------

Outro

E|-----------0---
B|-----------0---
G|-----------0---
D|------2h---2---
A|----2------2---
E|--0--------0---




Comments