Misc - Lets Go Band Chords & Tabs

 

Lets Go Band Chords & Tabs

Misc Chords & Tabs

Version: 1 Type: Bass Tab 0 ratings
1 star 2 stars 3 stars 4 stars 5 stars
comments

Lets Go Band Bass Tab

Let's Go Band!
Tabbed by :  " Cuthbert NgpTaN "

X - rest/mute "no sound"


Moderate Swing tempo:

Intro:
G ------------------ 
D --x-0-x-1-x-2-x-3-
A -1----------------   
E ------------------
     Repeat 3 times then ...

G ------------------
D ------------------
A -1h-1h-1h-x-------
E ------------------

 Repeat Intro 1 times then....

G ----------|------------|--------------|------------|----------|
D -3-1-0----|---0-1-2-3--|-----0h-1-2-3-|---0-1-2-3--|----------|
A -------3--|-1----------|-1-1----------|-1----------|-1-1-1-x--|
E ----------|------------|--------------|------------|----------|

 Then...
[ Tab from: http://www.guitartabs.cc/tabs/m/misc/lets_go_band_btab.html ]
G ----------|---------|----------|---------|---------|---------|----------|
D ----------|---------|-1-1-1-x--|-1h-1-x--|---------|-3h-3-x--|----------|
A -1-1-1-x--|-1h-1-x--|----------|---------|-3-3-3x--|---------|-1-1-1-x--|
E ----------|---------|----------|---------|---------|---------|----------|

 Repeat once....then

G ------------------ 
D --x-0-x-1-x-2-x-3-
A -1----------------   
E ------------------
     Repeat 3 times then ...

G -------------|---------------|
D -------------|Shout!Let's go |
A -1h-1h-1h-x--|    band       |
E -------------|---------------|

Easy and exciting song!!!!!!
comments >>>>> snowblind_cuth@yahoo.ca

Thanks.....
Comments