Misc - Leisure Suit Larry Theme Chords & Tabs

 

Leisure Suit Larry Theme Chords & Tabs

Misc Chords & Tabs

Version: 1 Type: Tab 1 rating
1 star 2 stars 3 stars 4 stars 5 stars
comments

Leisure Suit Larry Theme Tab

Tabber: Brett Wade.
Song: Leisure Siut Larry 1 Theme.
Artist: err... Sierra.

Here It Is. The Theme Song To Everyone's Favourite Sierra Game!
Leisure Suit Larry 1.
[ Tab from: http://www.guitartabs.cc/tabs/m/misc/leisure_suit_larry_theme_tab.html ]
E|-----------------------------8---|---8------8------8h10-11----|
B|5-5-6-7-8-10---8-10---8-10-8-----|10---9-10---9h10---------10-|
G|-------------9------9------------|----------------------------|
D|---------------------------------|----------------------------|
A|---------------------------------|----------------------------|
E|---------------------------------|----------------------------|

E|/12-12-/12-12-12-11p10-9--5-|--------------------------------|
B|-----------------------------|5p4h5-1-3--1p0------5p4h5-1-3-1-|
G|-----------------------------|---------------3-2------------0-|
D|-----------------------------|------------------------------2-|
A|-----------------------------|------------------------------3-|
E|-----------------------------|--------------------------------|

Theres More To It, But Thats The Main Theme. Repeat It Lots!

Brett Wade. Wadey4@hotmail.com.
Comments