Misc - Last Days Chords & Tabs

 

Last Days Chords & Tabs

Misc Chords & Tabs

Version: 1 Type: Tab 0 ratings
1 star 2 stars 3 stars 4 stars 5 stars
comments

Last Days Tab

Last Days
Artist: Richard
Email: powerboat6@aol.com

Intro

E|-----------------------------------
B|--2-2-2---3-3-3---4-4-4---3-3-3----
G|----------------------------------- reapeat 3x
D|----------------------------------- (let last note ring)
A|--0-0-0---0-0-0---0-0-0---0-0-0----
E|-----------------------------------

Verse

Asus2| 0 0 2 2 0 0    3 x's
				repeat 3x's
Asus4/Db| x 0 0 2 2 0  3 x's

|Then start with this|

A| 0 0 2 2 2 0     3 x's

Asus2| 0 0 2 2 0 0    3 x's         repeat 2x's

Asus4/Db| x 0 0 2 2 0  3 x's

Asus2| 0 0 2 2 0 0     3 x's

Chorus

G| 3 2 0 0 3 3     5 x's
				   repeat 3x's
Csus2| 0 3 2 0 3 3    6 x's

Solo
[ Tab from: http://www.guitartabs.cc/tabs/m/misc/last_days_tab.html ]
E|--------3----------3-----------------
B|----------3----------3---------------
G|-------------------------------------
D|---------------2---------------------        repeat 2x's
A|----2--------3-----------------------
E|--3----------------------------------

Outro

E|-----------------------------------
B|--2-2-2---3-3-3---4-4-4------------
G|----------------------------------- 
D|----------------------------------- repeat 2x's
A|--0-0-0---0-0-0---0-0-0------------
E|-----------------------------------

Then go to|

E|-------------0-----
B|---3---2-----2-----
G|-------------2----- 
D|-------------2----- 
A|-------------0-----
E|-------------0-----











Comments