Misc - Kum By Ya Chords & Tabs

 

Kum By Ya Chords & Tabs

Misc Chords & Tabs

Version: 1 Type: Tab 2 ratings
1 star 2 stars 3 stars 4 stars 5 stars
comments

Kum By Ya Tab

Song: Kum By Ya
Tabbed by: proudloser (Brad Douglas)
[ Tab from: http://www.guitartabs.cc/tabs/m/misc/kum_by_ya_tab.html ]
e------------------------------------------------I
B------------------------------------------------I
G--------0--0--0--2--2--0--------0--0------------I
D-----2-----------------------2--------3--2--0---I
A--3-----------------------3---------------------I
E------------------------------------------------I

e-------------------------------------------------I
B-------------------------------------------------I
G--------0--0--0--2--2--0-------------------------I
D-----2--------------------3--2-----0--0----------I
A--3-----------------------------3--------3-------I
E-------------------------------------------------I
Comments