Misc - King Of The Hill Theme Song 2 Chords & Tabs

 

King Of The Hill Theme Song 2 Chords & Tabs

Misc Chords & Tabs

Version: 1 Type: Tab 2 ratings
1 star 2 stars 3 stars 4 stars 5 stars
comments

King Of The Hill Theme Song 2 Tab

   
Oh yeah so cool.. : )

-King Of The Hill Theme Song-

e------------------------------|
B------------------------------|
G------------------------------|
D------------------------------|
A------------------------------|
E-0-00-0-00-4-00-0-00-5-555-9-7|

[ Tab from: http://www.guitartabs.cc/tabs/m/misc/king_of_the_hill_theme_song_2_tab.html ]
e------------------------------------|
B------------------------------------|
G------------------------------------|
D------------------------------------|
A------------------------------------|
E-0-00-0-00-4-00-0-00-5-5-4-4-2-2-4-2|


e-----------------------------------------------------------------0|
B-----------------------------------------------------------------0|
G-----------------------------------------------------------------0|
D-----------------------------------------------------------------0|
A-----------------------------------------------------------------0|
E-0-00-0-00-4-00-0-00-5-555-9-7-12-1212-11-1111-9-99-7-77-5-4-3-0-0|

easy as that
Comments