Misc - King Of The Hill Chords & Tabs

 

King Of The Hill Chords & Tabs

Misc Chords & Tabs

Version: 1 Type: Tab 1 rating
1 star 2 stars 3 stars 4 stars 5 stars
comments

King Of The Hill Tab

   
                                       KING OF THE HILL
                                  STANDARD TUNING (EADGBE)

  I HAVE SEEN A LOT OF THESE TABBED OUT BUT THEY JUST DONT SOUND AS GOOD WITH ONE STRING SO I HAVE
AN ALTERNITVE WITH TO STRINGS IT SOUNDS JUST A LITTLE BETTER AND IS NOT THAT HARD AND IS FUN TO PLAY

INTRO CALM COOL FEEL
 (A)         (E)
E---0--0-----0-
B---2--2-----0-
G---2--2-----1-
D---2--2-----2-
A-0----------2-
E----------0---

MODERATLY FAST ADD DISTORTION

E----------------------------------------------------------------------------------------- 
B----------------------------------------------------------------------------------------- 
G-----------------------------------------------------------------------------------------  
D---------------------------------6-4-----------------------------------------------------
A-2-2-2-2-2--6--2-2-2-2-2--7-7-7--4-2--2-2-2-2-2--6--2-2-2-2-2--7-7-7--6-4--2-2-2-2-2--6--
E-0-0-0-0-0--4--0-0-0-0-0--5-5-5-------0-0-0-0-0--4--0-0-0-0-0--5-5-5--4-2--0-0-0-0-0--4--
[ Tab from: http://www.guitartabs.cc/tabs/m/misc/king_of_the_hill_tab.html ]
E-----------------------------------------------------------------------------------------
B-----------------------------------------------------------------------------------------
G---------------------------------------------------------6-6-6-6-------------------------
D-------------------6-4--9-9--6-6--4-4--------------------6-6-6-6--6-6-6-6--7-7-7-7-7-----
A-2-2-2-2-2--7-7-7--4-2--7-7--4-4--2-2--7-7--6-6--4-4--0--4-4-4-4--6-6-6-6--7-7-7-7-7-----
E-0-0-0-0-0--5-5-5----------------------5-5--4-4--2-2--0-----------4-4-4-4--5-5-5-5-5-----

E------------------------------------------------------------------------------------------
B------------------------------------------------------------------------------------------
G------------------------------------------------------------------------------------------
D-9-9--7-7--6-6--4-4--0--2-2---------------------------------------------------------------
A-9-9--7-7--6-6--4-4--0--2-2---------------------------------------------------------------
E-7-7--5-5--4-4--2-2--0--0-0---------------------------------------------------------------
Comments