Misc - Just Another Wine Bar Chords & Tabs

 

Just Another Wine Bar Chords & Tabs

Misc Chords & Tabs

Version: 1 Type: Tab 3 ratings
1 star 2 stars 3 stars 4 stars 5 stars
comments

Just Another Wine Bar Tab

just another wine bar 
tabbed by freddytheman411


this song isn't to hard and sounds pretty cool.  
it can be played along with other blues peices in A


play this 3 times
|-------------------------------------------------------------------------------------------------
|-----------7----5------------------3----2------------------------------------------------------
|-----------7----5--h6-------------2----2------------------------------------------------------
|-----7-------------------7---------4----2------------------------------------------------------
|------------------------------0--------------0--------------------------------------------------
|-------------------------------------------------------------------------------------------------


|-------------------------------------------------------------------------------------------------
|-----------7----5-------------------------------------------------------------------------------
|-----------7----5--h6---------------------------------------------------------------------------
|-----7--------------------7-----p5--------------------------------------------------------2----
|-----------------------------------------7-----6-----p5----------0-----0-----3----h4----------
|-------------------------------------------------------------8-----------------------------------


|--------------------------------------------------------------------------------------------------
|----------3-----p1---------1---------------------------------------------------------------------
|-----------------------2---------2-----p0--------------------------------------------------------
|----0-------------------------------------------2------1----p0-----------------------------------
|---------------------------------------------------------------------3----------------------------
|--------------------------------------------------------------------------------------------------

[ Tab from: http://www.guitartabs.cc/tabs/m/misc/just_another_wine_bar_tab.html ]
|--------------------------------------0-----------------------------------------------------------
|-----------3p1--------------1h3-----------3p1------------1-------------------------------------
|---------------------2-------------------------------2--------------------------------------------
|----0---------------------------------------------------------------------------------------------
|--------------------------------------------------------------------------------------------------
|--------------------------------------------------------------------------------------------------


|-------------------------------------------------------------------------------------------------
|-------------3----2-----------------7----5----------------3----2--------------------------------
|-------------2----2-----------------7----5h6-------------2----2--------------------------------
|-------------4----2-----------7-----------------7---------4----2--------------------------------
|------0------------------0----------------------------0-------------0---------------------------
|--------------------------------------------------------------------------------------------------


|--------------------------------------0-----------------------------------------------------------
|--------------------------------------------3p0--------------------------------------------------
|------------------------------0h1------------------1---------------------------------------------
|--------0----1----2----4--------------------------------2-----1----------------------------------
|----4---------------------------------------------------------------------------------------------
|--------------------------------------------------------------------------------------------------


|--------------------------------------0-----------------------------------------------------------
|-----------3p1--------------1h3-----------3p1------------1-------------------------------------
|---------------------2-------------------------------2--------------------------------------------
|----0---------------------------------------------------------------------------------------------
|--------------------------------------------------------------------------------------------------
|--------------------------------------------------------------------------------------------------


|--------------------------------------------------------------------------------------------------
|--------------------------------------------------------------------------------------------------
|---------------------2--------------2---------------2---------------------------------------6----
|----------------5--------5-----4-------4------3--------3-----2--------------2-------4---- 5----
|-----0----0----------------------------------------------------------3h4-------------------0----
|--------------------------------------------------------------------------------------------------



Comments