Misc - Jeux Interdits Chords & Tabs

 

Jeux Interdits Chords & Tabs

Misc Chords & Tabs

Version: 2 Type: Tab 0 ratings
1 star 2 stars 3 stars 4 stars 5 stars
comments

Jeux Interdits Tab

acoustic guitar    jeux interdits tab by misc      

part 1                                                 steve,,, :)

|-7------7------7------7------5------3------3------2------0------0------|
|---0------0------0------0------0------0------0------0------0------0----|
|-----0------0------0------0------0------0------0------0------0------0--|
|-----------------------------------------------------------------------|
|-----------------------------------------------------------------------|
|-0--------------------0--------------------0--------------------0------|

|-3------7------12------12------12------12------10------8---------|
|---0------0-------0-------0-------0-------0-------0------0-------|
|-----0------0-------0-------0-------0-------0-------0------0-----|
|-----------------------------------------------------------------|
|-----------------------------------------------------------------|
|---------------0-----------------------0-------------------------|

|-8------7------5------5------7------8---------|
|---5------5------5------5------5------5-------|
|-----5------5------5------5------5------5-----|
|----------------------------------------------|
|-0--------------------0-----------------------|
|----------------------------------------------|

|-7------8------7------11------8------7--------|
|---7------7------7-------7------7------7------|
|-----8------8------8-------8------8------8----|
|----------------------------------------------|
|----------------------------------------------|
|-7--------------------7-----------------------|

|-7------5------3------3------2------0---------|
|---0------0------0------0------0------0-------|
|-----0------0------0------0------0------0-----|
|----------------------------------------------|
|----------------------------------------------|
|-0--------------------0-----------------------|

|-2------2------2------2------3------2---------|
|---0------0------0------0------0------0-------|
|-----2------2------2------2------2------2-----|
|----------------------------------------------|
|-2--------------------------------------------|
|----------------------2-----------------------|

|-0------0-------0--------------0-------------------|
|---0------0-------0-----------0--------------------|
|-----0------0-------0--------0---------------------|
|-2--------------------------2----------------------|
|--------2------------------2-----------------------|
|----------------3---------0------------------------|

[ Tab from: http://www.guitartabs.cc/tabs/m/misc/jeux_interdits_tab_ver_2.html ]
part 2

|-4-----4------4------4-----2------0-------|
|---0-----0------0------0-----0------0-----|
|-----1-----1------1------1-----1------1---|
|------------------------------------------|
|------------------------------------------|
|-0-------------------0--------------------|

|-----------------------------------
|-5------4------4------4------2------4-------|
|---4------4------4------4------4------4-----|
|-----4------4------4------4------4------4---|
|--------------------------------------------|
|-2--------------------2-------------2-------|

|-9------9------9------9-------11-------9-------|
|---7------7------7------7--------7-------7-----|
|-----8------8------8------8--------8-------8---|
|-----------------------------------------------|
|-----------------------------------------------|
|-7--------------------7------------------------|

|-9------7------7------7------9------11-------|
|---9------9------9------9------9-------9-----|
|-----9------9------9------9------9-------9---|
|---------------------------------------------|
|-7--------------------7----------------------|
|---------------------------------------------|

|-12------12------12-------12------11------10-------|
|----9-------9-------9--------9-------9-------9-----|
|------9-------9-------9--------9-------9-------9---|
|---------------------------------------------------|
|---------------------------------------------------|
|-0------------------------0------------------------|

|-9-------9-------9-------9-------7-------5-------|
|---5-------5-------5-------5-------5-------5-----|
|-----6-------6-------6-------6-------6-------6---|
|-------------------------------------------------|
|-0-----------------------0-----------------------|
|-------------------------------------------------|

|-4------4------4-------4-------5------2--------|
|---0------0------0-------4-------4------4------|
|-----1------1------1-------2-------2------2----|
|-----------------------------------------------|
|-----------------------------------------------|
|-0---------------------2-----------------------|

|-0-------0-------0--------------0--------|
|---0-------0-------0-----------0---------|
|-----1-------1-------1--------1----------|
|-2---------------------------2-----------|
|---------2------------------2------------|
|-----------------3---------0-------------|


play part1, x 2,  part2 x 1,  part1 x 1,  part2 x 1,  and part1 x 1



steve, pompom@sympatico.ca     pompom020366@hotmail.com
Comments