Misc - Jazzy Accoustic Song Chords & Tabs

 

Jazzy Accoustic Song Chords & Tabs

Misc Chords & Tabs

Version: 1 Type: Tab 4 ratings
1 star 2 stars 3 stars 4 stars 5 stars
comments

Jazzy Accoustic Song Tab

here goes. im not to sure what this song is called but it 
sounds really impressive and is a good piece to kno.
             
first verse                       (play fast here)
e)----1-----2-----3-----1-----1-------5-----6---3----3--1--3--3-----
B)----1-----4-----3-----2-----1------5-----6---3-----5--1--3--5-----
G)----2-----2-----3-----3-----2-----5----6----3------5--2--3--5-----
D)--3-----4-----5-----3-----3------7----8----5-------5--3--5--5-----
A)------------------------------------------------------------------
E)------------------------------------------------------------------
[ Tab from: http://www.guitartabs.cc/tabs/m/misc/jazzy_accoustic_song_tab.html ]
second verse:                     (play fast here)
e)----1-----2-----3-----1-----1-------5-----6---3----3--1--1--------
B)----1-----4-----3-----2-----1------5-----6---3-----5--1--1--------
G)----2-----2-----3-----3-----2-----5----6----3------5--2--2--------
D)--3-----4-----5-----3-----3------7----8----5-------5--3--1--------
A)------------------------------------------------------------------
E)------------------------------------------------------------------ 

middle:

e)----1----1----1----2----3----2------3----4------------------------
B)----3----2----1----4----3----3------5----5------------------------
G)----3----3----2----2----3----3------5----5------------------------
D)--3----3----3----4----5----4------5----6--------------------------
A)------------------------------------------------------------------
E)------------------------------------------------------------------


then back to the top.
barry_fallon2000@hotmail.com
Comments