Misc - Hokey Pokey Chords & Tabs

 

Hokey Pokey Chords & Tabs

Misc Chords & Tabs

Version: 1 Type: Tab 2 ratings
1 star 2 stars 3 stars 4 stars 5 stars
comments

Hokey Pokey Tab

SONG: Hokey pokey
Tabber: Danielle
Email: freakofnuffs@hotmail.com

this is my version of the hokey pokey. um.... don't sound to bad. 
it's good to play for the little kids.

E|-----------|--------------|-
B|-----------|--------------|-
G|--------555|--------------|-
D|--5h7-5----|x3--7-5\9-7979|-
A|-----------|--------------|-
E|-----------|--------------|-
"You put you da da in" etc...
[ Tab from: http://www.guitartabs.cc/tabs/m/misc/hokey_pokey_tab.html ]
E|-------------|--------|-----------|-
B|-------------|--------|-----------|-
G|------------7|--------|-----------|-
D|-5\9-7\9-7\9-|-7-5-979|-5-5-7-9-10|-
A|-------------|--------|-----------|-
E|-------------|--------|-----------|-
 "you do the hokey pokey and you turn around. that's what its all about"

E|-------------|---------------|-
B|-------------|---------------|-
G|--9-5--------|--9-5----------|-
D|------7-5---5|------7-5-10-9~|-
A|----------7--|---------------|-
E|-------------|---------------|-
'oh the hokey pokey' etc...

E|-------------|------------|-
B|-------------|------------|-
G|-9-5---------|----------5-|-
D|-----7-5---5-|-55-5\7-9---|-
A|---------7---|------------|-
E|-------------|------------|-
'oh the hokey pokey'|And that's what its all about.

anyone thinking they gotta a better versiona and want to rub it in my face.
 email it to me and tell me how good it is
Comments