Misc - Hockey Night In Canada Theme Chords & Tabs

 

Hockey Night In Canada Theme Chords & Tabs

Misc Chords & Tabs

Version: 1 Type: Tab 2 ratings
1 star 2 stars 3 stars 4 stars 5 stars
comments

Hockey Night In Canada Theme Tab

   
Well while we're all suffering through the great 
lockout of 2004, we might as well keep 
some fond memories alive as we sit at home
with our families on a Saturday night.  
Play this one for your family and you'll
feel the love...


RIFF A.................
[---------------------]			[-----]
[---------------------]			[-----]
[.-------------------.]	PLAY 3X	THEN:	[-----]
[.---5---5/10--10\8--.]			[--5--]
[----3---3/-8---8\6---]			[--3--]
[---------------------]			[-----]


	     start RIFF A again
[-----------------------------------------------------]
[------------8----(8)-----------------8/10\8----(8)---]
[.-------5-------------------------5------------------]
[.-5-5-5---7-----------------5-5-5---7----------------]
[-----------------------------------------------------]
[-----------------------------------------------------]


					    1st ending  	
					   [----------]	
[ Tab from: http://www.guitartabs.cc/tabs/m/misc/hockey_night_in_canada_theme_tab.html ]
		F  /  /  /  Eb  /   /   /  Gm
[-----------5---5-5h6-5-------------------------------]
[-------5-8-----6-------6-----8---8-8h9-8----8----(8)-]
[-----5---------5-------------8------------8---------.]
[-5-5-------------------------8----------------------.]
[-----------------------------------------------------]
[-----------------------------------------------------]


                    v^v^v^
[----------------------------------------------------]
[-8--8-11--11/12--13---------------------------------]
[----------------------------5----(5)\---------------]
[----------------------------5----(5)\---------------]
[----------------------------3----(3)\---------------]
[----------------------------------------------------]



TAB KEY:
/
/	SLIDE UP
/

\
\	SLIDE DOWN
\

v^v^v	VIBRATO

posted by:
ckhamilton, fan of the great canadian game
  ________ 
 /  I  I  \
[   I__I     GO HABS GO
[   I  I
 \__I__I__/
Comments