Misc - Heart And Soul Chords & Tabs

 

Heart And Soul Chords & Tabs

Misc Chords & Tabs

Version: 3 Type: Tab 3 ratings
1 star 2 stars 3 stars 4 stars 5 stars
comments

Heart And Soul Tab

Heart and Soul

tabbed by:classicrock

This is a pretty cool little tune that involves two guitars. This song is usually played on the 
piano.
Both guitars are in standard tuning.

Guitar 1

e----------------------------------
B----------------------------------
G----------------------------------
D------2-2-------------------------
A--3-3-----0-0-3-3-----0-0-----2-2-
E------------------1-1-----3-3-----

After that plays twice it keeps going but with Guitar 2 playing over it.

Guitar 2
[ Tab from: http://www.guitartabs.cc/tabs/m/misc/heart_and_soul_tab_ver_3.html ]
e---------------------------------------------------------------------------------------
B---------------------------------------------------------------------------------------
G---5-5-5~~-5-4-2-4-5-7--9-9-9~~-9-7-5-7-9-10--12~~-5~~-14-12-10-9-7-5-4-2-0---2-0-2-4--
D----------------------------------------------------------------------------2----------
A---------------------------------------------------------------------------------------
E---------------------------------------------------------------------------------------

Then both guitars just keep going.
Comments