Misc - Heart And Soul Chords & Tabs

 

Heart And Soul Chords & Tabs

Misc Chords & Tabs

Version: 1 Type: Tab 1 rating
1 star 2 stars 3 stars 4 stars 5 stars
comments

Heart And Soul Tab

   
#----------------------------------PLEASE NOTE--------------------------------# 
#This file is the author's own work and represents their interpretation of the# 
#song. You may only use this file for private study, scholarship, or research.# 
#-----------------------------------------------------------------------------#

Song:Heart & Soul
Tabbed by:J.Mark

    C           Am          F           G
e-----------------------------------------------------|
b-----------------------------------------------------|
g.---------------------------------------------------.|
d.--------2---2--------------------------------------.|
a---3---3-------0---0-3---3-------0---0-------2---2---|
e---------------------------1---1-------3---3---------|

[ Tab from: http://www.guitartabs.cc/tabs/m/misc/heart_and_soul_tab.html ]
e-----------------------------------------------------|
b---1-----1-----1---------------1-0-----0---1-3-------|
g.------------------------------------2---------------|
d.--------2---2---------------------------------------|
a---3---3-------0---0-3---3-------0---0-------2---2---|
e---------------------------1---1-------3---3---------|


e---0-----0-----0---------------0-----------0-1-------|
b---------------------------------3---1-3-------------|
b-----------------------------------------------------|
d---------2---2---------------------------------------|
a---3---3-------0---0-3---3-------0---0-------2---2---|
e---------------------------1---1-------3---3---------|


e---3---------------------------5-3---1-0-------------|
b---------------1-----------------------------3-------|
g-----------------------------------------------------|
d---------2---2---------------------------------------|
a---3---3-------0---0-3---3-------0---0-------2---2---|
e---------------------------1---1-------3---3---------|


e-----------------------------------------------------|
b---1---------0-------------------------------0-------|
g---------------2---------0-----------0-2------------.|
d---------2---2-------------3------------------------.|
a---3---3-------0---0-3---3-------0---0-------2---2---|
e---------------------------1---1-------3---3---------|

Comments