Misc - Hard Mans Theme Megaman Chords & Tabs

 

Hard Mans Theme Megaman Chords & Tabs

Misc Chords & Tabs

Version: 1 Type: Tab 0 ratings
1 star 2 stars 3 stars 4 stars 5 stars
comments

Hard Mans Theme Megaman Tab

Song: Megaman 3 : Hard Man's Theme
Tabbed BY: Tim Barr
MX ID: SpADeD
Date: 1/27/04
                                                           
E||----------------0----------|----------------0----------|
B||--1--1--1----3-----3---1-0-|--1--1--1----3-----3---1-0-|
G||----------2----------------|----------2----------------|
D||---------------------------|---------------------------|
A||---------------------------|---------------------------|
E||---------------------------|---------------------------|


                                                                               
--------------------------|----------0------------|----------------0----------|
-----1--0-------1--0------|-------------0---------|--1--1--1----3-----3---1-0-|
--2-------0--2---------0--|-----0--2--------------|----------2----------------|
--------------------------|--3--------------------|---------------------------|
--------------------------|-----------------------|---------------------------|
--------------------------|-----------------------|---------------------------|


                                                        
----------------0----------|-------------------0----1--|
--1--1--1----3-----3---1-0-|-----1--0-3--1--1----3-----|
----------2----------------|--2------------------------|
---------------------------|---------------------------|
---------------------------|---------------------------|
---------------------------|---------------------------|


                                                                             
--0-3-5-7-8-7---5---------|-------------------------0-|---------------------|
--------------8-----------|---------------------0-----|--3----0-------------|
--------------------------|-----------------------5---|-----------0---------|
--------------------------|--7--5--7-5--7-----7-------|---------------------|
--------------------------|---------------------------|---------------------|
--------------------------|---------------------------|---------------------|


                                                                                
-------------------0-------|-----------------------|-------------------------0-|
--3--3--1-0--3-------3-1-0-|-----------------------|---------------------0-1---|
---------------------------|--2--2--2-0--2---------|--2--0--2-0--2-----2-------|
---------------------------|-----------------------|---------------------------|
---------------------------|-----------------------|---------------------------|
---------------------------|-----------------------|---------------------------|


                                                                          
---------------------|-------------------0-------|-----------------------|
--3----0-------------|--3--3--1-0--3-------3-1-0-|-----------------------|
-----------0---------|---------------------------|--2--2--2-0--2---------|
---------------------|---------------------------|-----------------------|
---------------------|---------------------------|-----------------------|
---------------------|---------------------------|-----------------------|


                                                  
------------------------|------------------------|
--0--1--0-----0---------|--0--1--0-----0---------|
-----------2------0-----|-----------2------0-----|
------------------------|------------------------|
------------------------|------------------------|
------------------------|------------------------|


                                                                         
------1-5-3-1-----1-5-3-1-----1-5-|--3-1-----1-5-3-1-----1-3-7-10-13-15-|
--0-3---------0-3---------0-3-----|------0-3---------0-3----------------|
----------------------------------|-------------------------------------|
----------------------------------|-------------------------------------|
----------------------------------|-------------------------------------|
----------------------------------|-------------------------------------|


                                                        
-------------------------------|-----------------------|
-------------10--8-------------|--6--5--3----3---------|
----------10---------10--9--7--|----------5------------|
--12--12-----------------------|-----------------------|
-------------------------------|-----------------------|
-------------------------------|-----------------------|


                                                                              
--------1-3--5---3--5--6--|--8--6--5-3--1---------|--------1-5--3---1--0-----|
--3--3--------------------|-----------------------|--3--3-----------------3--|
--------------------------|-----------------------|--------------------------|
--------------------------|-----------------------|--------------------------|
--------------------------|-----------------------|--------------------------|
--------------------------|-----------------------|--------------------------|


                                                     
--1--0-----------------|--10--8--6-5--3---5--8--10--|
--------3-1--3---------|----------------------------|
-----------------------|----------------------------|
-----------------------|----------------------------|
-----------------------|----------------------------|
-----------------------|----------------------------|


                                                             
--13--12--10-8--10--8-8--8--8-8-|----------------0----------|
--------------------------------|-------------3-----3---1-0-|
--------------------------------|--5--5--5-2----------------|
--------------------7-7--7--7-7-|---------------------------|
--------------------------------|---------------------------|
--------------------------------|---------------------------|

[ Tab from: http://www.guitartabs.cc/tabs/m/misc/hard_mans_theme_megaman_tab.html ]
                                                                               
----------------0----------|--------------------------|----------0------------|
--1--1--1----3-----3---1-0-|-----1--0-------1--0------|-------------0---------|
----------2----------------|--2-------0--2---------0--|-----0--2--------------|
---------------------------|--------------------------|--3--------------------|
---------------------------|--------------------------|-----------------------|
---------------------------|--------------------------|-----------------------|


                                                        
----------------0----------|----------------0----------|
--1--1--1----3-----3---1-0-|--1--1--1----3-----3---1-0-|
----------2----------------|----------2----------------|
---------------------------|---------------------------|
---------------------------|---------------------------|
---------------------------|---------------------------|


                                                       
-------------------0----1--|--0-3-5-7-8-7---5---------|
-----1--0-3--1--1----3-----|--------------8-----------|
--2------------------------|--------------------------|
---------------------------|--------------------------|
---------------------------|--------------------------|
---------------------------|--------------------------|


                                                                              
-------------------------0-|---------------------|-------------------0-------|
---------------------0-----|--3----0-------------|--3--3--1-0--3-------3-1-0-|
-----------------------5---|-----------0---------|---------------------------|
--7--5--7-5--7-----7-------|---------------------|---------------------------|
---------------------------|---------------------|---------------------------|
---------------------------|---------------------|---------------------------|


                                                                          
-----------------------|-------------------------0-|---------------------|
-----------------------|---------------------0-1---|--3----0-------------|
--2--2--2-0--2---------|--2--0--2-0--2-----2-------|-----------0---------|
-----------------------|---------------------------|---------------------|
-----------------------|---------------------------|---------------------|
-----------------------|---------------------------|---------------------|


                                                                             
-------------------0-------|-----------------------|------------------------|
--3--3--1-0--3-------3-1-0-|-----------------------|--0--1--0-----0---------|
---------------------------|--2--2--2-0--2---------|-----------2------0-----|
---------------------------|-----------------------|------------------------|
---------------------------|-----------------------|------------------------|
---------------------------|-----------------------|------------------------|


                                                            
------------------------|------1-5-3-1-----1-5-3-1-----1-5-|
--0--1--0-----0---------|--0-3---------0-3---------0-3-----|
-----------2------0-----|----------------------------------|
------------------------|----------------------------------|
------------------------|----------------------------------|
------------------------|----------------------------------|


                                                                      
--3-1-----1-5-3-1-----1-3-7-10-13-15-|-------------------------------|
------0-3---------0-3----------------|-------------10--8-------------|
-------------------------------------|----------10---------10--9--7--|
-------------------------------------|--12--12-----------------------|
-------------------------------------|-------------------------------|
-------------------------------------|-------------------------------|


                                                                           
-----------------------|--------1-3--5---3--5--6--|--8--6--5-3--1---------|
--6--5--3----3---------|--3--3--------------------|-----------------------|
----------5------------|--------------------------|-----------------------|
-----------------------|--------------------------|-----------------------|
-----------------------|--------------------------|-----------------------|
-----------------------|--------------------------|-----------------------|


                                                                                
--------1-5--3---1--0-----|--1--0-----------------|--10--8--6-5--3---5--8--10--|
--3--3-----------------3--|--------3-1--3---------|----------------------------|
--------------------------|-----------------------|----------------------------|
--------------------------|-----------------------|----------------------------|
--------------------------|-----------------------|----------------------------|
--------------------------|-----------------------|----------------------------|


                                                             
--13--12--10-8--10--8-8--8--8-8-|----------------0----------|
--------------------------------|-------------3-----3---1-0-|
--------------------------------|--5--5--5-2----------------|
--------------------7-7--7--7-7-|---------------------------|
--------------------------------|---------------------------|
--------------------------------|---------------------------|


                                                                               
----------------0----------|--------------------------|----------0------------|
--1--1--1----3-----3---1-0-|-----1--0-------1--0------|-------------0---------|
----------2----------------|--2-------0--2---------0--|-----0--2--------------|
---------------------------|--------------------------|--3--------------------|
---------------------------|--------------------------|-----------------------|
---------------------------|--------------------------|-----------------------|


                                                        
----------------0----------|----------------0----------|
--1--1--1----3-----3---1-0-|--1--1--1----3-----3---1-0-|
----------2----------------|----------2----------------|
---------------------------|---------------------------|
---------------------------|---------------------------|
---------------------------|---------------------------|


                                                        
-------------------0----1--|--0-3-5-7-8-7---5---------||
-----1--0-3--1--1----3-----|--------------8-----------||
--2------------------------|--------------------------||
---------------------------|--------------------------||
---------------------------|--------------------------||
---------------------------|--------------------------||


Comments