Misc - Happy Birthday Chords & Tabs

 

Happy Birthday Chords & Tabs

Misc Chords & Tabs

Version: 8 Type: Tab 0 ratings
1 star 2 stars 3 stars 4 stars 5 stars
comments

Happy Birthday Tab

E--0--0--2--0--5--4--
B--------------------
G--------------------
D--------------------
A--------------------
E--------------------


E--0--0--2--0--7--5--
B--------------------
G--------------------
D--------------------
A--------------------
E--------------------
[ Tab from: http://www.guitartabs.cc/tabs/m/misc/happy_birthday_tab_ver_8.html ]
E--0--0--9--5--4--4--2--
B-----------------------
G-----------------------
D-----------------------
A-----------------------
E-----------------------

E--10--10--9--5--7--5--
B----------------------
G----------------------
D----------------------
A----------------------
E----------------------

Here an easy way of playing this song.. Enjoy!
Comments