Misc - Happy Birthday Chords & Tabs

 

Happy Birthday Chords & Tabs

Misc Chords & Tabs

Version: 5 Type: Tab 0 ratings
1 star 2 stars 3 stars 4 stars 5 stars
comments

Happy Birthday Tab

#----------------------------------PLEASE NOTE--------------------------------#
#This file is the author's own work and represents their interpretation of the#
#song. You may only use this file for private study, scholarship, or research.#
#-----------------------------------------------------------------------------#
#-- File created with Instab - http://www.pconline.com/~smcarey/instab.html --#
#-----------------------------------------------------------------------------#

Author/Artist: Misc
Title: Happy Birthday
-|----------------------------------------------------------------------------
-|----------------------------------------------------------------------------
-|---------------5--4-----------------7--5------------------------------------
-|---5--5--7--5-----------5--5--7--5------------------------------------------
-|----------------------------------------------------------------------------
-|----------------------------------------------------------------------------
   Happy Bday to you     Happy bday to you                                    
[ Tab from: http://www.guitartabs.cc/tabs/m/misc/happy_birthday_tab_ver_5.html ]
-|----------------------------------------------------------------------------
-|--------8--5----------------6--6--5-----------------------------------------
-|--------------5--4-------------------5--7--5--------------------------------
-|---5-5--------------7-------------------------------------------------------
-|----------------------------------------------------------------------------
-|----------------------------------------------------------------------------
     Happy Bday to someone    Happy Bday to you!                              

-|----------------------------------------------------------------------------
-|----------------------------------------------------------------------------
-|----------------------------------------------------------------------------
-|---5--7--5--8---------------------------------------------------------------
-|----------------------------------------------------------------------------
-|----------------------------------------------------------------------------
    And many more...     Play this really fast with heavy distortion          

Comments