Misc - Happy Birthday Chords & Tabs

 

Happy Birthday Chords & Tabs

Misc Chords & Tabs

Version: 3 Type: Tab 0 ratings
1 star 2 stars 3 stars 4 stars 5 stars
comments

Happy Birthday Tab

                          ======================
                          /^\ Happy Birthday /^\
                          ======================   
                                  
Song: Happy Birthday                                                      
Tabbed By: Chris Homan                                  
                                                        
This is my first tab. I guess you figured that out since I'm doing 
happy birthday. This is a really easy song to play and I hope u like it.
[ Tab from: http://www.guitartabs.cc/tabs/m/misc/happy_birthday_tab_ver_3.html ]
e------------------------------3-0---------1-1-0----------------------
B----------1-0---------3-1---------1-1-0---------1-3-1----------------
G--0-0-2-0-----0-0-2-0-----0-0-----------2----------------------------
D---------------------------------------------------------------------
A---------------------------------------------------------------------
E---------------------------------------------------------------------

                                     Higher pitch
                                         /\
Happy birthday to you, Happy birthday to you, 

      Pitch goes up between birth and day.
          /\
Happy birthday _________, Happy birthday to you.
                   \/
             Put persons name here.

e---------------------------------------------------------------------
B---------------------------------------------------------------------
G--0-2-0-3------------------------------------------------------------
D---------------------------------------------------------------------
A---------------------------------------------------------------------
E---------------------------------------------------------------------

And Many More....

Thats all, if you have any questions im at chrisman2x@home.com
Comments