Misc - Halloween Theme Chords & Tabs

 

Halloween Theme Chords & Tabs

Misc Chords & Tabs

Version: 1 Type: Tab 2 ratings
1 star 2 stars 3 stars 4 stars 5 stars
comments

Halloween Theme Tab

e|-21---------21----------21-----22---------------------------------
b|----19-19-------19-19------19-------------------------------------
g|------------------------------------------------------------------
d|-------------------------------------2----3----4-------------------
a|-------------------------------------2----3----4------------------
E|-------------------------------------0----1----2-------------------
[ Tab from: http://www.guitartabs.cc/tabs/m/misc/halloween_theme_tab.html ]
e|--19--------19---------19-----20----------------------------------
b|-----17-17-----17-17------17--------------------------------------
g|------------------------------------------------------------------
d|------------------------------------------------------------------
a|------------------------------------------------------------------
E|------------------------------------------------------------------

----Statallica@aol.com ( Chris )
Comments