Misc - Hail To The Chief Chords & Tabs

 

Hail To The Chief Chords & Tabs

Misc Chords & Tabs

Version: 1 Type: Tab 0 ratings
1 star 2 stars 3 stars 4 stars 5 stars
comments

Hail To The Chief Tab

   
Song: Hail To The Chief
Band: N/A
Tabbed by: SpRiNgWaFfLe

Figured this out a while ago.

g-------0-----------------
d-0-2-4---4-2-0-2-0-------
a-------------------2-0---
e-----------------------3-
[ Tab from: http://www.guitartabs.cc/tabs/m/misc/hail_to_the_chief_tab.html ]
g---0-2-4-2-0-2-0-2-4-2-0-----
d-0-----------------------4-2-
a-----------------------------
e-----------------------------

Repeat the whole thing over and
over and if you stop... the terrorists
will have won. Peace.
Comments