Misc - Guitar Lesson One Chords & Tabs

 

Guitar Lesson One Chords & Tabs

Misc Chords & Tabs

Version: 1 Type: Tab 0 ratings
1 star 2 stars 3 stars 4 stars 5 stars
comments

Guitar Lesson One Tab

   
Lesson 1
Tabs and Lessons By: Shock





------0---0---0---0----------------------------------------------------0---0---0---0---0-----
------------------------0--------------------------------------------0----------------------------
----------------------------0------------------------------------0--------------------------------
--------------------------------0----------------------------0------------------------------------
------------------------------------0--------------------0----------------------------------------
---------------------------------------0---0---0---0--------------------------------------------

Try this all downpicked and then try alternate picking
After that try doing it faster and faster
( This wiil help with getting your right hand technique for leads )



[ Tab from: http://www.guitartabs.cc/tabs/m/misc/guitar_lesson_one_tab.html ]
-----------------------------------------------------------------------------
---7-^-9-^-7--------7-^-9-^-7--------7-^-9-^-7-----------------------
------------------9----------------9---------------9-----------------------
------------------------------------------------------------------------------
------------------------------------------------------------------------------
------------------------------------------------------------------------------
           h  p             h  p            h  p

Try this to get some hammers and pulls down for your left hand technique 
because we all know that every lead guitarists main thind is hammers pulls and
bends which are next



--------------12--------------12-------------12------------12---------------
--------12---------------12-------------12------------12--------------------
--14----------------14-------------14------------14-------------------------
----------------------------------------------------------------------------------
----------------------------------------------------------------------------------
----------------------------------------------------------------------------------
  bend              bend          bend        bend


try bending 14 and then when you get that down pat then do the b string 12 and after that do the high e 
string 12 


when you finish all in this lesson you should be able to write a basic solo or even learn someone
elses an easy basic one is Nothing Else Matters by Metallica. I will start posting lessons more and more for all us lead guitarists 
out there and I please ask any and all lead guitarists to send me some info like, cool solos to learn, new guitar tricks, etc. or any feedback on the lessons
Fireandbrims@cs.com
Comments