Misc - Guitar Boogie Shuffle Chords & Tabs

 

Guitar Boogie Shuffle Chords & Tabs

Misc Chords & Tabs

Version: 1 Type: Tab 0 ratings
1 star 2 stars 3 stars 4 stars 5 stars
comments

Guitar Boogie Shuffle Tab

   
Song: Guitar Boogie Shuffle
Band: N/A
Tabbed by: SpRiNgWaFfLe [springwaffle@comcast.net]

This one probably everyone knows but for those
that don't it's a cool song you should learn it.
Simple 12-bar in E.

Part One

  E               E
e---------------------------------
b---------------------------------
g---------------------------------
d-----------------2-2------------- x2
a---------2-2-4-4-----4-4-2-2-----
e-0-0-4-4---------------------4-4-

  A               A
e---------------------------------
b---------------------------------
g---------------------------------
d---------2-2-4-4-5-5-4-5-4-2---2-
a-0-0-4-4---------------------4---
e---------------------------------

  E               E
e---------------------------------
b---------------------------------
g---------------------------------
d-----------------2-2-------------
a---------2-2-4-4-----4-4-2-2-----
e-0-0-4-4---------------------4-4-
[ Tab from: http://www.guitartabs.cc/tabs/m/misc/guitar_boogie_shuffle_tab.html ]
  B               A
e---------------------------------
b---------------------------------
g---------------------------------
d---------------------------------
a-2-2-4-4-5-5-4-4-2-2-0-0---------
e-------------------------4-4-2-2-

  E               E
e----------------------------------
b----------------------------------
g----------------------------------
d-----------------2-2---2--2-----2-
a---------2-2-4-4-----4------3h4---
e-0-0-4-4--------------------------

Part Two

  E       x8  A       x4  E       x4  B       x4  E       x4
e-----------|-----------|-----------|-----------|-----------|
b-----------|-----------|-----------|-----------|-----------|
g-----------|-----------|-----------|-----------|-----------|
d-----------|---------2-|-----------|-----0h1h4-|-----------|
a---------2-|-0-0-3h4---|---------2-|-2-2-------|---------2-|
e-0-0-3h4---|-----------|-0-0-3h4---|-----------|-0-0-3h4---|

Then there's a solo but I don't know it. Just improvise
something in E if you know how.

Then play the first part again except this time play the
last two measures like this:     
              
e---------------------------------
b---------------------------------
g---------------------------------
d-----------------1-2-------------
a-------0--1--2-4-----------------
e-0--4-----------------0----------
Comments