Misc - Groovy Spanish Tune Chords & Tabs

 

Groovy Spanish Tune Chords & Tabs

Misc Chords & Tabs

Version: 1 Type: Tab 1 rating
1 star 2 stars 3 stars 4 stars 5 stars
comments

Groovy Spanish Tune Tab

   
Well, I saw that at the moment spanish songs are quite popular.
So I decided to show you my "little tune".It's very easy and I
hope you enjoy it!

It's standart tuning (EADGHe)


1st Part:

Play this twice! When you gone through the first time and reach again
the Em part, you should get slower and slower and let ring out the last
note as if it seems that you're gonna stop. 

   Am              G               F               Em              
e------0-------0-------0-------0-------0-------0-------0-------0---
H----1---1---1---1---0---0---0---0---1---1---1---1---0---0---0---0-
G--2-------2-------0-------0---------------------------------------
D----------------------------------3-------3-----------------------
A------------------------------------------------------------------
E--------------------------------------------------0-------0-------

2nd Part:

Play this twice,too! I tabbed the rhythm, but if you know a better one
use your own rhythm.
[ Tab from: http://www.guitartabs.cc/tabs/m/misc/groovy_spanish_tune_tab.html ]
e--0-0-0000-0-0-0000-0000\0000\0~~~-------
H--0-0-0000-0-0-0000-0000\0000\0~~~-------
G--1-1-1111-2-2-2222-4444\2222\1~~~-------
D--2-2-2222-3-3-3333-5555\3333\2~~~-------
A--2-2-2222-3-3-3333-5555\3333\2~~~-------
E--0-0-0000-0-0-0000-0000\0000\0~~~-------


3rd Part:

I think you how often it's played.
As you can see it's the same rhythm then in part 2.

   Am       G        F        E
e--0-0-0000-3-3-3333-1-1-1111-0-0-0000----
H--1-1-1111-0-0-0000-1-1-1111-0-0-0000----
G--2-2-2222-0-0-0000-2-2-2222-1-1-1111----
D--2-2-2222-0-0-0000-3-3-3333-2-2-2222----
A--0-0-0000-2-2-2222-3-3-3333-2-2-2222----
E-----------3-3-3333-1-1-1111-0-0-0000----


Here's little solo a second guitar can play during part 3:

e--3-1-0----------------------------------
H--------3-/5-0---------------------------
G-----------------------------------------
D-----------------------------------------
A-----------------------------------------
E-----------------------------------------


Now you repeat part 2 and then part 1 (remember to get slower) and 
then end the song with and middle slow downstrum on Am:

e------0-----
H-----1------
G----2-------
D---2--------
A--0---------
E------------

by Michael Ringleb

That's it! I hope you liked it and you understood everything.

If you have any Questions and Comments anyway, let me know:

miringi@aol.com
Comments