Misc - Groovy Spanish Song Chords & Tabs

 

Groovy Spanish Song Chords & Tabs

Misc Chords & Tabs

Version: 1 Type: Tab 1 rating
1 star 2 stars 3 stars 4 stars 5 stars
comments

Groovy Spanish Song Tab

Artist: Me
Song: Mine
Tab by: Spike (me)


Ok this is a really good song that I made, well I think so.
I use it mainly to impress my gran cause she loves spanish music,
lol. But I think it's really cool, and really simple.
Here it is...


E|----------------------------------------------------------------]
B|----------------------------------------------------------------]
G|-------1-------1--------2--------2--------2--------2--------2---]
D|-----2-------2--------3--------3--------1--------1--------3-----]
A|---2-------2--------3--------3--------1--------1--------3-------]
E|-0-------0--------0--------0--------0--------0--------0---------]

E|--------------------------------]
B|--------------------------------]
G|--2-(Let ring)-1-(Let ring)-X4--]
D|--------------------------------]
A|--------------------------------]
E|--------------------------------]

E|--0----------------0----------------] Repeat this a number of times 
B|--0----------------0----------------] slowly getting faster. Until you
G|--2--(----------)--1--(----------)--] start strumming each chord. You
D|--3--(-Let Ring-)--2--(-Let Ring-)--] can use your own style of strumming
A|--3--(----------)--2--(----------)--] or listen to a spanish song and use
E|--0----------------0----------------] that.
[ Tab from: http://www.guitartabs.cc/tabs/m/misc/groovy_spanish_song_tab.html ]
 
 End: 1st Part
E|--0-0-0-0-0-0-0-0-0-0-0-0-/-0-0-0-0-0-0-0-0-0-0-0-0--]
B|--0-0-0-0-0-0-0-0-0-0-0-0-/-0-0-0-0-0-0-0-0-0-0-0-0--]
G|--1-1-1-1-1-1-1-1-1-1-1-1-/-2-2-2-2-2-2-2-2-2-2-2-2--] Repeat a load of times...
D|--2-2-2-2-2-2-2-2-2-2-2-2-/-3-3-3-3-3-3-3-3-3-3-3-3--] 
A|--2-2-2-2-2-2-2-2-2-2-2-2-/-3-3-3-3-3-3-3-3-3-3-3-3--]
E|--0-0-0-0-0-0-0-0-0-0-0-0-/-0-0-0-0-0-0-0-0-0-0-0-0--]
 
 ^When strumming get faster and faster, until eventually you just start playing
  up & down, up & down etc...(^As above^) by this point you should be strumming 
  up and down at a very fast speed (^As above^).
 
 End: 2nd Part
E|-0-0-0-0-0-0-/-0-0-0-0-0-0----|-0---0---0---0---0---0---0--------------]
B|-0-0-0-0-0-0-/-0-0-0-0-0-0----|-0---0---0---0---0---0---0--------------]
G|-1-1-1-1-1-1-/-2-2-2-2-2-2-X6-|-2---2---2---2---2---2---1--------------]
D|-2-2-2-2-2-2-/-3-3-3-3-3-3----|-3---3---3---3---3---3---2--------------]
A|-2-2-2-2-2-2-/-3-3-3-3-3-3----|-3---3---3---3---3---3---2--------------]
E|-0-0-0-0-0-0-/-0-0-0-0-0-0----|-0---0---0---0---0---0---0--------------]
                                                          ^Let Ring......

Ok thats all of it. I know it will be hard to learn as you haven't heard
it before and don't know how to go around playing it the way I do. You
can either interpretate the song how you want too. Or easily you can message me
and I'll explain to you.

E-mail: Dying_Time_666_13@hotmail.com (Also on msn)
        Debbiesnowdon@hotmail.com      

Yahoo SN: Spike_666_13 and Mud_Slip_Vayne_Knot1966

Once again, thanks for your time... 
                     
                   ...Your honourable servant and skivvy, Spike...



Comments