Misc - Greensleeves Original Chords & Tabs

 

Greensleeves Original Chords & Tabs

Misc Chords & Tabs

Version: 1 Type: Tab 2 ratings
1 star 2 stars 3 stars 4 stars 5 stars
comments

Greensleeves Original Tab

   
#----------------------------------PLEASE NOTE---------------------------------#
#This file is the author's own work and represents their interpretation of the #
#song. You may only use this file for private study, scholarship, or research. #
#------------------------------------------------------------------------------#

Bring to you by: Michael Reina (aka MEGAMAN), Ben and Dan!!!

if you have any comments of suggestions or if you just want to share the same joy 
I feel whenever I play this song, please write me michaelreina@yahoo.com or visit
us at http://gamenationx.net/


This is an awesome song, I just love it, I learned it from a friend when tabs
didn't even exist, and then I added my own stuff (keeping the original version
intact).....

note: new improved versions are to come with some spanish guitar arrangements ;)

cheeeers



Legend:
^      hammer or pull-off
/      slide




         Am                G                 F                     E
|-------------0--1--0---|-----------------|---------------------|----------|  
|-------1--3------------|--3--0--------0--|--1------------------|--0-------|
|--2--------------------|--------0--2-----|-----2--2--1--2------|-----1----|
|-----------------------|-----------------|---------------------|--------2-|
|-------0-----0---------|-----------------|---------------------|----------|
|-----------------------|--3-----3--------|--0------------------|--0-------|
[ Tab from: http://www.guitartabs.cc/tabs/m/misc/greensleeves_original_tab.html ]
    Am                    G                 F          E           Am            
|------------0--1--0----|-----------------|----------|----------|-----------|  
|------1--3-------------|--3--0--------0--|--1--0----|----------|-----------| 
|-2---------------------|--------0--2-----|--------2-|-1-----1--|--2~~~-----| 
|-----------------------|-----------------|----------|----4-----|-----------|  
|------0-----0----------|-----------------|----------|----------|--0--------|  
|-----------------------|--3-----3--------|--1-------|----------|-----------| 

   C                        G                 F                    E
|--5/3---3--3----3-2^0--|-----------------|---------------------|-----------|
|--------------0--------|--3--0--------0--|--1------------------|--0--------|
|-----------------------|--------0--2-----|-----2--2--1--2------|-----1-----|
|-----------------------|-----------------|---------------------|--------2--|
|-----------3-----------|-----------------|---------------------|-----------|
|-----------------------|--3-----3--------|--0------------------|--0--------|

   C                        G                 F        E           Am            

|--5/3---3--3----3-2^0--|-----------------|----------|----------|-----------|  
|--------------0--------|--3--0--------0--|--1--0----|----------|-----------|
|-----------------------|--------0--2-----|--------2-|-1-----1--|--2~~~-----| 
|-----------------------|-----------------|----------|----4-----|-----------| 
|-----------3-----------|-----------------|----------|----------|--0--------| 
|-----------------------|--3-----3--------|--1-------|----------|-----------| 


to  be continued...
Comments