Misc - Gilligans Island Chords & Tabs

 

Gilligans Island Chords & Tabs

Misc Chords & Tabs

Version: 1 Type: Chords 1 rating
1 star 2 stars 3 stars 4 stars 5 stars
comments

Gilligans Island Chords

   
#----------------------------------PLEASE NOTE---------------------------------#
#This file is the author's own work and represents their interpretation of the #
#song. You may only use this file for private study, scholarship, or research. #
#------------------------------------------------------------------------------#

Gilligans Island Theme Song

By Markbo (markmark552@hotmail.com)
(I won a "Gong Show" in a bar In Sacramento with this song)


This song is really easy to play. Strum the melody with the words.

The C to C(Bm) to Am change really makes the song



       Am                       G             Am               G
e------0------------------------3-------------0----------------3--
B------1------------------------0-------------1----------------0--
G------2------------------------0-------------2----------------0--
D------2------------------------0-------------2----------------0--
A------0------------------------2-------------0----------------2--
E------x------------------------3-------------x----------------3--
Just sit right back and you'll hear tale, A tale of a fateful trip


       Am                 G            C          C(Bm)  C
e------0------------------3------------0-----------0-----0-----
B------1------------------0------------1-----------1-----1-----
G------2------------------0------------0-----------0-----2-----
D------2------------------0------------2-----------2-----2-----
A------0------------------2------------3-----------2-----0-----
E------x------------------3------------x-----------x-----x-----
 That started from this tropic port, a-board this tiny ship

[ Tab from: http://www.guitartabs.cc/tabs/m/misc/gilligans_island_crd.html ]
      Am                       G             Am               G
e------0------------------------3-------------0----------------3--
B------1------------------------0-------------1----------------0--
G------2------------------------0-------------2----------------0--
D------2------------------------0-------------2----------------0--
A------0------------------------2-------------0----------------2--
E------x------------------------3-------------x----------------3--
     The mate was a mighty sailin' man, the skipper brave and sure



       Am           G                    C   C(Bm)  Am     C     C(Bm) Am
e------0------------3--------------------0----0-----0------0------0----0-----
B------1------------0--------------------1----1-----1------1------1----1-----
G------2------------0--------------------0----0-----2------0------0----2-----
D------2------------0--------------------2----2-----2------2------2----2-----
A------0------------2--------------------3----2-----0------3------2----0-----
E------x------------3--------------------x----x-----x------x------x----x-----

Five passengers set sail that day for a three hour tour, A three hour tour




VERSE 2

The weather started getting rough, the tiny ship was tossed

If not for the courage of the fearless crew, the minnow would be lost

The Minnow would be lost





INTERLUDE
  Am                        G               Am            G
The ship set ground on the shore of this uncharted desert isle
       Am           G                Am                  G
With Gilligan, the Skipper Too, The Millionaire and his wife
     Am     G     Am                G         C       D          Am        
The mo-vie star, The professor and Mary Ann, Here on Gilligan's Isle


Comments