Misc - Ghostbusters Theme Chords & Tabs

 

Ghostbusters Theme Chords & Tabs

Misc Chords & Tabs

Version: 1 Type: Tab 2 ratings
1 star 2 stars 3 stars 4 stars 5 stars
comments

Ghostbusters Theme Tab

|--------------------------------------------|
|--------------------------------------------|
|-------------11----9----------------------9-|
|-11-11-11-11----11---9-----11-11-11-11-9----|
|--------------------------------------------|
|--------------------------------------------|
[ Tab from: http://www.guitartabs.cc/tabs/m/misc/ghostbusters_theme_tab.html ]
|-----------------------------------------------|
|-----------------------------------------------|
|-------------11----9----------------------9----|
|-11-11-11-11----11---9-----11-11-11-11-9----11-|
|-----------------------------------------------|
|-----------------------------------------------|

|-------------------------|
|-------------------------|
|-9----9----9-------------|
|---11---11---11--9-10-11-| X2
|-------------------------|
|-------------------------|
Comments