Misc - Ghost Riders On The Sky Chords & Tabs

 

Ghost Riders On The Sky Chords & Tabs

Misc Chords & Tabs

Version: 1 Type: Tab 0 ratings
1 star 2 stars 3 stars 4 stars 5 stars
comments

Ghost Riders On The Sky Tab

I just used the tab thats already there and my ear to figure this out
the other ones arent wrong this is just for the people that want to play
the cool version, and the easy to read.
[ Tab from: http://www.guitartabs.cc/tabs/m/misc/ghost_riders_on_the_sky_tab.html ]
e|--------------------------|--------------------------|
B|--------------------------|--------------------------|
G|--------------------------|--------------------------|
D|--------------------------|----------------0-2-22-0-2|
A|----0-00-2-3-33-0---------|----0-00-2-3-33-----------|
E|--0---------------3-33-0-3|--0-----------------------|

e|-----------------------|-----------------|
B|-----------------------|-----------------|
G|---2-22-0--------------|-----------------|
D|--2------2-22-0--------|-----------------|
A|----------------3-33-00|------33--3-00--0|
E|-----------------------|-1-11----------3-|

Don't send your comments I dont want them.
Dick Dale=God If anyone has the tab for Mozart's Canon in D minor
please post it.
Comments