Misc - Geico Asleep Commercial Chords & Tabs

 

Geico Asleep Commercial Chords & Tabs

Misc Chords & Tabs

Version: 1 Type: Tab 1 rating
1 star 2 stars 3 stars 4 stars 5 stars
comments

Geico Asleep Commercial Tab

   
Transcription of "GEICO Asleep Commercial" by hammeron.
Credits go to Volitan for proofreading and corrections.

The song used for the ad is an original recording prepared for GEICO, it's not available.

The commercial plays in E flat, to play along use a capo at the first fret.

-----------
Chords:
D....x00232
G/B..x2000x
G....xx5433
G9...xx5435
A....x02220
-----------

4/4 time
...D.................G/B.....A.........D.................G/B....A........
e|-----------------|-----------------|-----------------|-----------------|
B|-3---3-------3---|-0h2-3---2-------|-3---3-------3---|-0h2-3---2-------|
G|---2-------2-----|-------------2---|---2-------2-----|-------------2---|
D|-0---------------|-----------------|-0---------------|-----------------|
A|---------0-------|-2-------0-------|---------0-------|-2-------0-------|
E|-----------------|-----------------|-----------------|-----------------|


...D.................G/B.....A.........D.................G/B.....A.......
e|-----------------|-----------------|-----------------|-----------------|
B|-3---3-------3---|-0h2-3---2-------|-3---3-------3---|-0h2-3---2-------|
G|---2-------2-----|-------------2---|---2-------2-----|-------------2---|
D|-0---------------|-----------------|-0---------------|-----------------|
A|---------0-------|-2-------0-------|---------0-------|-2-------0-------|
E|-----------------|-----------------|-----------------|-----------------|

[ Tab from: http://www.guitartabs.cc/tabs/m/misc/geico_asleep_commercial_tab.html ]
...G.........................G9..................................G.......
e|-----------------|---------5-------|-----------------|---------3---2---|
B|-3---3-------3---|-----3-------3---|-3---3-------3---|-----3-----------|
G|---4-------4-----|---4-------4-----|---4-------4-----|---4---4---------|
D|-5-------0-------|-5-------0-------|-5-------0-------|-5---------------|
A|-----------------|-----------------|-----------------|-----------------|
E|-----------------|-----------------|-----------------|-----------------|


...D.................G/B.....A.........D.................G/B.....A.......
e|-----------------|-----------------|-----------------|-----------------|
B|-3---3-------3---|-0h2-3---2-------|-3---3-------3---|-0h2-3---2-------|
G|---2-------2-----|-------------2---|---2-------2-----|-------------2---|
D|-0---------------|-----------------|-0---------------|-----------------|
A|---------0-------|-2-------0-------|---------0-------|-2-------0-------|
E|-----------------|-----------------|-----------------|-----------------|


...D.................G/B.....A.........D.................G/B.....A.......
e|-----------------|-----------------|-----------------|-----------------|
B|-3---3-------3---|-0h2-3---2-------|-3---3-------3---|-0h2-3---2-------|
G|---2-------2-----|-------------2---|---2-------2-----|-------------2---|
D|-0---------------|-----------------|-0---------------|-----------------|
A|---------0-------|-2-------0-------|---------0-------|-2-------0-------|
E|-----------------|-----------------|-----------------|-----------------|


Notations:
h = Hammer
Comments