Misc - Friends Chords & Tabs

 

Friends Chords & Tabs

Misc Chords & Tabs

Version: 1 Type: Tab 0 ratings
1 star 2 stars 3 stars 4 stars 5 stars
comments

Friends Tab

   
friends. (i made it on the last ever episode!)

e---------------------------------
a------0--------------------------
d---------------------------------
g----------------------0-0--2-4-2-
b-------------2--2--0-------------
e---------------------------------

e---------------------------------
a---------------------------------
d---------------------------------
g----------------------0-0--2-4-2-
b-------------2--2--0-------------
e---------------------------------
[ Tab from: http://www.guitartabs.cc/tabs/m/misc/friends_tab.html ]
 A                            G
so no one told you life was gonna be this way
  A                                E
your jobs a joke your broke your love life's D.O.A
 D              A                 E
its like your always stuck in second gear
 D                         A                   E           
when it hasn't been your day,week,or month or even your year, but
A         D        E
I'll be there for you (when the rain starts to fall)
A         D        E
I'll be there for you (like i been there before)
A         D        E                        G
I'll be there for you (coz your there for me two) 


hi, this is my first ever,ever tab and i'm really proud. hope you enjoy it.
lewis
Comments