Misc - Frere Jacques Chords & Tabs

 

Frere Jacques Chords & Tabs

Misc Chords & Tabs

Version: 1 Type: Bass Tab 0 ratings
1 star 2 stars 3 stars 4 stars 5 stars
comments

Frere Jacques Bass Tab

-------------------------------------------------------------------------------
			     Frere Jacques- unknown
-------------------------------------------------------------------------------
Tabbed By : robert

Tuning:

G|---0-2-4-0---0-2-4-0--|
D|----------------------|
A|----------------------|
E|----------------------|
[ Tab from: http://www.guitartabs.cc/tabs/m/misc/frere_jacques_btab.html ]
G|---4-5-7---4-5-7------|
D|----------------------|
A|----------------------|
E|----------------------|
        
   Play Fairly Quick

G|---7-8-7-6-5-0---7-8-7-6-5-0---|
D|-------------------------------|
A|-------------------------------|
E|-------------------------------|
        
G|-------------------|
D|---5-0-5---5-0-5---|
A|-------------------|
E|-------------------|

  I'm pretty sure this is it.  It sounds good.
Comments