Misc - Frankenstein Chords & Tabs

 

Frankenstein Chords & Tabs

Misc Chords & Tabs

Version: 1 Type: Tab 0 ratings
1 star 2 stars 3 stars 4 stars 5 stars
comments

Frankenstein Tab

   
well i tabbed the whole guitar part for Frankenstein, a REALLY good song took a
whole bloody hour its made by Edgar Winter Groupe but the rock orchestra isnt a
band in these archives, so it isnt mine

Riff 1

e-----------------------
b-----------------------
g----------3------------
d5555-3-55-3--555-3-5---
a5555-3-55-1--555-3-5---
e3333-1-33----333-3-5---

Riff 2

e-----------------------------------
b-------------------------3---------
g--------3---5-3---3--5-3--5-3------
d----3-5---5-----5-------------5-3-5
a3-5--------------------------------
e-----------------------------------

Riff 3

e--------------------
b---------3h45595----
g---3h455-3h45585----
d55-3h455-1h23363----
a55-1h233------------
e33------------------

Riff 4

e---------------------------3-----------
b---------4---6-4----4-6-4----6-4-------
g----3-5----5-----5---------------5-3-5-
d3-5------------------------------------
a---------------------------------------
e---------------------------------------

Riff 5

e---------------------
b---------------------
g3333-2320---2222-212-
d--------------------4
a---------------------
e---------------------

Riff 6
Part 1 x1          Part 2 x2
e---------------\----------------
b---------------\----------------
g3-3-33-3-33-3--\5-5-55-5-55-5---
d3-3-33-3-33-3--\5-5-55-5-55-5---
a1-1-11-1-11-1--\3-3-33-3-33-3---
e---------------\----------------

Riff 7

e------------
b------------
g---55-77-5-7
d77-55-77-5-7
a77-33-55-3-5
e55----------

Riff 8

e---------
b---------
g99-7-9-9-
d99-7-9-7-
a77-5-7-5-
e---------

Riff 9
[ Tab from: http://www.guitartabs.cc/tabs/m/misc/frankenstein_tab.html ]
e--------------------------
b--------------------------
g--------------------------
d--------------------2345--
a----1233--------1233----5-
e3-33-----012-333---------3

next two are played by bass but can be with both or just guitar

Bass riff 1

e-----------------------------------------
b-----------------------------------------
g------------------------- 3---5----------
d---------------------3-53---5---8-7-10-12
a----------1---3-1-53---------------------
e1-333-1-3---3----------------------------

Bass riff 2

e--------------------------------
b--------------------------------
g----------------------3---------
d5-3-5---*drums*-5-3-5----*drums*
a--------------------------------
e------3-------------------------


Riff 10


play this fast

e12h11h10h9h8h7h6h5h4h3h2h-------------------------
b-------------------------12h11h10h9h8h7h6h5h4h3h2h
g--------------------------------------------------
d--------------------------------------------------
a--------------------------------------------------
e--------------------------------------------------
Just mess around with stuff like that and it sounds right.

Riff 11

palm mute

e---------------------------------------------------
b---------------------------------------------------
g-12-12-11-11-10-10-9-9-8-8-7-7-6-6-5-5-4-4-3-3-2-2-
d-12-12-11-11-10-10-9-9-8-8-7-7-6-6-5-5-4-4-3-3-2-2-
a-10-10-9--9--8--8--7-7-6-6-5-5-4-4-3-3-2-2-1-1-0-0-
e---------------------------------------------------


Riff 12

e----------------
b----------------
g3333-5555-7777--
d3333-5555-7777--
a1111-3333-5555--
e----------------

Order:
Riff 1 x2
Riff 2 x1
Riff 3 x1
Riff 2 x1 plus riff 6 x 1
Riff 4 x1 plus riff 6 x 1
Riff 5 x1
Riff 1 x2
Riff 7 x8
Riff 8 x4
Riff 9 x6
Bass riff 1 x 2
Bass riff 2 x 2
Drum Solo
Riff 10 x many as you want
Riff 11 x1
Riff 1 x2
Riff 2 x2
Riff 12 x2

contact me at vector5555555555@yahoo.com
Comments