Misc - Fearless (guitar 2) Chords & Tabs

 

Fearless (guitar 2) Chords & Tabs

Misc Chords & Tabs

Version: 1 Type: Tab 0 ratings
1 star 2 stars 3 stars 4 stars 5 stars
comments

Fearless (guitar 2) Tab

FEARLESS – N.C.        
tabbed by PET


Guitar 2:

E |-----------------------------------------------------------------------|
B |-----------------------------------------------------------------------|
G |-----------------------------------------------------------------------| repeat
D |---2---2--------------5---5------------7---7-----------5---5-----------| 2 times
A |-----2------------------3----------------5---------------3-------------|
E |-----------------------------------------------------------------------|

E |---------------------------------------------------------------------|
B |---------------------------------------------------------------------|
G |---------------------------------------------------------------------| repeat 
D |---2--2--------------5--5---------------7--7-------------5--5--------| 5 times
A |---2--2--------------3--3---------------5--5-------------3--3--------|
E |---------------------------------------------------------------------|

Solo 1:
E |---------------------------------------------------------|
B |---------------------------------------------------------|
G |---------------------------------------------------------|
D |-----------2--3--5--3--5--7--5--7--5--3--2---------------|
A |--2--3--5-----------------------------------3--5--3------|
E |---------------------------------------------------------| 

E |---------------------------------------------------------------------|
B |---------------------------------------------------------------------|
G |---------------------------------------------------------------------| repeat 
D |---2--2--------------5--5---------------7--7-------------5--5--------| 2 times
A |---2--2--------------3--3---------------5--5-------------3--3--------|
E |---------------------------------------------------------------------|

soft on background when solo 1 Guitar 1 starts:
E |---------------------------------------------------------------------|
B |---------------------------------------------------------------------|
G |---------------------------------------------------------------------| repeat 
D |---2--2--------------5--5---------------7--7-------------5--5--------| 3 times
A |---2--2--------------3--3---------------5--5-------------3--3--------|
E |---------------------------------------------------------------------|

E |---------------------------------------------------------------------|
B |---------------------------------------------------------------------|
G |---------------------------------------------------------------------| repeat 
D |---2--2--------------5--5---------------7--7-------------5--5--------| 2 times
A |---2--2--------------3--3---------------5--5-------------3--3--------|
E |---------------------------------------------------------------------|

E |------------------------------------------------------------------------|
B |------------------------------------------------------------------------| 
G |------------------------------------------------------------------------| 1
D |------------------------------------------------------------------------| time
A |------------------------------------------------------------------------|
E |------------------------------------------------------------------------|

Solo 2:
E |-------------------------------------7-5-7--9-7-9--12-10-12------------|
B |-------------------------------7-5-7------------------------12-10-12---|
G |-------------------------7-5-7-----------------------------------------|
D |-------2-3-5-3-5--7-5-7------------------------------------------------|
A |-2-3-5-----------------------------------------------------------------|
E |-----------------------------------------------------------------------|

E |----------------------------------------------------------------------------|
B |----------------------------------------------------------------------------|
G |-12-9-12--------------------------------------------------------------------|
D |----------12-9-12-----------------------------------------------------------|
A |-------------------12-10-12-------------------------------------------------|
E |----------------------------12-10-12---10-9-10---8-7-8---4-3-4---0----------|

E |---------------------------------------------------------------------|
B |---------------------------------------------------------------------|
G |---------------------------------------------------------------------| repeat 
D |---2--2--------------5--5---------------7--7-------------5--5--------| 2 times
A |---2--2--------------3--3---------------5--5-------------3--3--------|
E |---------------------------------------------------------------------|

soft on the background when solo 2 from guitar 1 starts:
E |---------------------------------------------------------------------|
B |---------------------------------------------------------------------|
G |---------------------------------------------------------------------| repeat 
D |---2--2--------------5--5---------------7--7-------------5--5--------| ...times
A |---2--2--------------3--3---------------5--5-------------3--3--------|
E |---------------------------------------------------------------------|
[ Tab from: http://www.guitartabs.cc/tabs/m/misc/fearless_guitar_2_tab.html ]
E |---------------------------------------------------------------------|
B |---------------------------------------------------------------------|
G |---------------------------------------------------------------------| repeat 
D |---2--2--------------5--5---------------7--7-------------5--5--------| 2 times
A |---2--2--------------3--3---------------5--5-------------3--3--------|
E |---------------------------------------------------------------------|

E |---------------------------------------------------------------------|
B |---------------------------------------------------------------------|
G |---------------------------------------------------------------------| repeat 
D |---2--2--------------5--5---------------7--7-------------5--5--------| 6 times
A |---2--2--------------3--3---------------5--5-------------3--3--------|
E |---------------------------------------------------------------------|

E |---------------------------------------------------------------------|
B |---------------------------------------------------------------------|
G |---------------------------------------------------------------------| 
D |---2--2--------------5--5---------------7--7-------------10--10------|
A |---2--2--------------3--3---------------5--5-------------10--10------|
E |---------------------------------------------------------------------|

E |---------------------------------------------------------------------|
B |---------------------------------------------------------------------|
G |---------------------------------------------------------------------| 
D |---2--2--------------5--5---------------7--7-------------5--5--------|
A |---2--2--------------3--3---------------5--5-------------3--3--------|
E |---------------------------------------------------------------------|

E |---------------------------------------------------------------------|
B |---------------------------------------------------------------------|
G |---------------------------------------------------------------------| 
D |---2--2--------------5--5---------------7--7-------------10--10------|
A |---2--2--------------3--3---------------5--5-------------10--10------|
E |---------------------------------------------------------------------|

E |---------------------------------------------------------------------|
B |---------------------------------------------------------------------|
G |---------------------------------------------------------------------| 
D |---2--2--------------5--5---------------7--7-------------5--5--------|
A |---2--2--------------3--3---------------5--5-------------3--3--------|
E |---------------------------------------------------------------------|

Solo 3:
E |-0-0--R--3-3--R--5-5--R--3-3--R---|
B |----------------------------------| 
G |----------------------------------| R = litte break (few seconds)
D |----------------------------------| repeat 2 times
A |----------------------------------|
E |----------------------------------|

E |-0-0---3-3---5-5---3-3---0-0---3-3---5-5---7-7--5-7--5-3-5--1-3-0--|
B |-------------------------------------------------------------------| 
G |-------------------------------------------------------------------|
D |-------------------------------------------------------------------|
A |-------------------------------------------------------------------|
E |-------------------------------------------------------------------|

E |---------------------------------------------------------------------|
B |---------------------------------------------------------------------|
G |---------------------------------------------------------------------| repeat
D |---2--2--------------5--5---------------7--7-------------5--5--------| 2 times
A |---2--2--------------3--3---------------5--5-------------3--3--------|
E |---------------------------------------------------------------------|

soft on the background when solo 3 from guitar 2 starts:
E |---0--0-----x--x-----x--x-----x--x----|
B |---0--0-----x--x-----x--x-----x--x----| 
G |---0--0-----x--x-----x--x-----x--x----| repeat 
D |---2--2-----5--5-----7--7-----5--5----| 7 times
A |---2--2-----5--5-----7--7-----5--5----|
E |---0--0-----3--3-----5--5-----3--3----|

E |---------------------------------------------------------------------|
B |---------------------------------------------------------------------|
G |---------------------------------------------------------------------| repeat
D |---2--2--------------5--5---------------7--7-------------5--5--------| 2 times
A |---2--2--------------3--3---------------5--5-------------3--3--------|
E |---------------------------------------------------------------------|

E |-------------------------------------------------------------------|
B |-------------------------------------------------------------------| 
G |-------------------------------------------------------------------|
D |-------------------------------------------------------------------|
A |-------------------------------------------------------------------|
E |-------------------------------------------------------------------|

E |------------------|
B |------------------| 
G |------------------|
D |------------------|
A |------------------|
E |--7--5--3--0------|

E |--0----------------|
B |--0----------------| 
G |--0----------------|
D |--2----------------|
A |--2----------------|
E |--0----------------|
Comments