Misc - Fear The Lord Your God Chords & Tabs

 

Fear The Lord Your God Chords & Tabs

Misc Chords & Tabs

Version: 1 Type: Tab 0 ratings
1 star 2 stars 3 stars 4 stars 5 stars
comments

Fear The Lord Your God Tab

E--0-0-2-3-2-0-----|-0-2-3-2-0----|-0-2-3---5-3--3-2|-0-2-3-3|
B---------------3~~|-----------3~~|-----------------|--------|
G------------------|--------------|-----------------|--------|
D------------------|--------------|-----------------|------Repeat 2x
A------------------|--------------|-----------------|--------|
E------------------|--------------|-----------------|--------|

E---3-5-7---7/8\7--5-5--3\2---0----0-2-3----|
B---------------------------3----3-------3-3|
G-------------------------------------------|
D-------------------------------------------|
A-------------------------------------------|
E-------------------------------------------|

E--0-0-2-3-2-0-----|-0-2-3-2-0----|-0-2-3---5-3--3-2|-0-2-3-3|
B---------------3~~|-----------3~~|-----------------|--------|
G------------------|--------------|-----------------|--------|
D------------------|--------------|-----------------|--------|
A------------------|--------------|-----------------|--------|
E------------------|--------------|-----------------|--------|
[ Tab from: http://www.guitartabs.cc/tabs/m/misc/fear_the_lord_your_god_tab.html ]
E---3-5-7---7/8\7--5-5--3\2---0----0-2-3----|
B---------------------------3----3-------3-3|
G-------------------------------------------|
D-------------------------------------------|
A-------------------------------------------|
E-------------------------------------------|

E--0-0-2-3-2-0-----|-0-2-3-2-0----|-0-2-3---5-3--3-2|-0-2-3-3|
B---------------3~~|-----------3~~|-----------------|--------|
G------------------|--------------|-----------------|--------|
D------------------|--------------|-----------------|Play this 
A------------------|--------------|-----------------|for the rest of
E------------------|--------------|-----------------|the song with 
                                                     The Piano


This is my first Tab so hope you enjoy. I pick this tune up from ear 
so this should be right. I thank G-d for my ear and hope that if 
there is any other Messianic Jews on this sight that they hopefully 
play the guitar and would like to check this out. I would like to say
what's up to Carolyn and the rest of her family in that cold climate.
Good luck over there and G-d bless. 
Comments