Misc - Fast Song Chords & Tabs

 

Fast Song Chords & Tabs

Misc Chords & Tabs

Version: 1 Type: Tab 1 rating
1 star 2 stars 3 stars 4 stars 5 stars
comments

Fast Song Tab

#----------------------------------PLEASE NOTE--------------------------------#
#This file is the author's own work and represents their interpretation of the#
#song. You may only use this file for private study, scholarship, or research.#
#-----------------------------------------------------------------------------#
#-- File created with Instab - http://www.pconline.com/~smcarey/instab.html --#
#-----------------------------------------------------------------------------#

Author/Artist: Tylor Loomans
Title: Misc. Fast Song
Transcribed by: Greg Manier
Email: gregmanier@yahoo.com

Please Email Me!
[ Tab from: http://www.guitartabs.cc/tabs/m/misc/fast_song_tab.html ]
-0-0-2-0-3-0-2-0-|-0-0-2-0-3-0-2-0|-0-0-2-0-3-0-2-0-|-0-0-2-0-3-0-2-0---------
-----------------|----------------|-----------------|-------------------------
-----------------|----------------|-----------------|-------------------------
-----------------|----------------|-----------------|-------------------------
-----------------|----------------|-----------------|-------------------------
-----------------|----------------|-----------------|-------------------------
                                                                              

-0-0-5-0-6-0-5-0-|-0-0-5-0-6-0-5-0|-0-0-2-0-3-0-2-0-|-0-0-2-0-3-0-2-0---------
-----------------|----------------|-----------------|-------------------------
-----------------|----------------|-----------------|-------------------------
-----------------|----------------|-----------------|-------------------------
-----------------|----------------|-----------------|-------------------------
-----------------|----------------|-----------------|-------------------------
                                                                              

-0-0-9-0-10-0-9-10-|-0-0-5-0-6-0-5-0|-0-0-2-0-3-0-2-0|---2--------------------
-------------------|----------------|----------------|---3--------------------
-------------------|----------------|----------------|---2--------------------
-------------------|----------------|----------------|---0--------------------
-------------------|----------------|----------------|------------------------
-------------------|----------------|----------------|------------------------
                                                                              

Comments